Nirvana - Lithium Chords & Tabs

 

Lithium Chords & Tabs

Nirvana Chords & Tabs

Version: 6 Type: Tab 0 ratings
1 star 2 stars 3 stars 4 stars 5 stars
comments

Lithium Tab

nirvana lithium 

Intro/Main Riff:

e--------------------------------------------------
B--------------------------------------------------
G----------------6---------------------------------
D----------------6-------7----55-7777-0-44-7777-0--
A--2-----------4-------7---0--33-5555-0-22-5555-0-- x5 clean
E--0-x-0-4-x-0-----0-5-----------------------------

                                                                                                             7                                                                                    
In the intro towards the end the just on the 5th time when you reach the bit just crank 
up distortion on the 5.

Verse:

e--------------------------------------
B--------------------------------------
G--------66-22222-55-7777-0-44-7777-0--
D--22-66-66-22222-55-7777-0-44-7777-0--
A--22-66-44-00000-33-5555-0-22-5555-0-- x3 distortion
E--00-44-------------------------------

Main Riff:
[ Tab from: http://www.guitartabs.cc/tabs/n/nirvana/lithium_tab_ver_6.html ]
e--------------------------------------------------
B--------------------------------------------------
G----------------6---------------------------------
D----------------6-------7----55-7777-0-44-7777-0--
A--2-----------4-------7---0--33-5555-0-22-5555-0-- x4 
E--0-x-0-4-x-0-----0-5-----------------------------

Verse:

e--------------------------------------
B--------------------------------------
G--------66-22222-55-7777-0-44-7777-0--
D--22-66-66-22222-55-7777-0-44-7777-0--
A--22-66-44-00000-33-5555-0-22-5555-0-- x3 distortion
E--00-44-------------------------------

Chorus:

e-----------
B-----------
G-----5555--
D--77-5555--
A--77-3333-- Repeat Load Of Times
E--55-------

(No Guitar) Bass

Verse:

e--------------------------------------
B--------------------------------------
G--------66-22222-55-7777-0-44-7777-0--
D--22-66-66-22222-55-7777-0-44-7777-0--
A--22-66-44-00000-33-5555-0-22-5555-0-- x3 distortion
E--00-44-------------------------------

Chorus:

e-----------
B-----------
G-----5555--
D--77-5555--
A--77-3333-- Repeat Till Fade
E--55-------
Comments