Nirvana - Lithium Chords & Tabs

 

Lithium Chords & Tabs

Nirvana Chords & Tabs

Version: 10 Type: Tab 0 ratings
1 star 2 stars 3 stars 4 stars 5 stars
comments

Lithium Tab

   
-------------------------------------------------------------------------------
			     LITHIUM - NIRVANA
-------------------------------------------------------------------------------
Tabbed by: Sol Pachner
Email: SsPunk@hotmail.com

Tuning: As normal

O.K this is perfect, but I have arranged for 2 guitars 
 

  INTRO/1st verse:


     Gtr 1

e| ---------------------------------------------------|
B| ---------------------------------------------------|
G| ---------------------------------2-2-20------------|
D| --------------6---6-2-2-2-2-5-5-0-0-00-4--4/7-7-77|
A| 2---2--6---6--4---4-0-0-0-0-3--3--------2-2/5-5-55|
E| 0---0--4---4---------------------------------------|   Played 6 times
     
            Gtr 2
e| ---------------------------------------------------|
B| ---------------------------------------------------|
G| ------------------6---------5--5-7-7--7-4--4-7-7--7|
D| ----2-------------66--2---2-5--5-7-7--7-4--4-7-7--7|
A| ----2------6--4-----0---0-----3------5----2------5-|
E| 0------4-------------------------------------------|   played 6 times
[ Tab from: http://www.guitartabs.cc/tabs/n/nirvana/lithium_tab_ver_10.html ]
       Chorus (Both Guitars)
e| ---------------------------------------------------|
B| ---------------------------------------------------|
G| --------------6--66---------5-55-7-7-77-4-44-7-7-77|
D| 2--22--6--66--6--66-7-7-7-7-5-55-7-7-77-4-44-7-7-77|
A| 2--22--6--66--4--44-7-7-7-7-3-33-5-5-55-2-22-5-5-55|
E| 0--00--4--44--------5-5-5-5------------------------|

          2nd verse (played on 1 guitar, you decide which)
e| ---------------------------------------------------|
B| ---------------------------------------------------|
G| ------------------6---------5--5-7-7--7-4--4-7-7--7|
D| ----2-------------66--2---2-5--5-7-7--7-4--4-7-7--7|
A| ----2------6--4-----0---0-----3------5----2------5-|
E| 0------4-------------------------------------------|   played 6 times

The "I Like It" part

e| --------------------------|
B| --------------------------|
G| ------5-5-5---------5-5-5-|
D| 7--77-5-5-5-0-7-7-7-5-5-5-|
A| 7--77-3-3-3-0-7-7-7-3-3-3-|
E| 5--55---------5-5-5-------|   Played 8 times

Outro:

e| -----------------------|
B| -----------------------|
G| 7-777777-4-444444------|
D| 7-777777-4-444444--2-6-|
A| 5-555555-2-222222--0-4-|
E| -----------------------|   Played once

Song order:
Intro/1st verse               X6
Chorus                       X4
2nd verse(only 2nd guitar)     X6
"I Like it"                  X8
Outro                        X1
3rd verse(silence)
Chorus                       X4
"I Like it"                  X8
Outro                        X1



| /  slide up
| \  slide down
| h  hammer-on
| p  pull-off
| ~  vibrato
| +  harmonic
| x  Mute note
===============================================================================
Comments