Nirvana - Lithium Chords & Tabs

 

Lithium Chords & Tabs

Nirvana Chords & Tabs

Version: 4 Type: Bass Tab 0 ratings
1 star 2 stars 3 stars 4 stars 5 stars
comments

Lithium Bass Tab

   
Title:Lithium
Artist:Nirvana
Tabbed By: Pete Hamlet (bassist) with a LITTLE help from Rob Hall (guitarist)
this is MY verson for lithium i think its right but i aint seen it anywhere else on 
the net and it sounds right to me and all my mates so .... It must be right!!!
Normal Tuning (E,A,D,G)

Start on the chorus: (Yeeeeaah yeaaaaaahh)
|--------------------------------------------------|
|--------------------------------------------------|  X3
|-------------4-4----------------------------------|
|--0---0--4-4-----5-5-3-3-5-5-5-5-2-2-5-5-5-5------|

Verse (i'm so happy)
|-------------------------------------------------|
|---------------------3-3-5-5-5-5-----------------|
|--5--5-4--4-2--2-----------------0-0--3-3-3---5--| X4
|----------------3--3-----------------------------|
[ Tab from: http://www.guitartabs.cc/tabs/n/nirvana/lithium_btab_ver_4.html ]
Bridge (i like it, i'm not gonna crack) - i'm not sure where it's played it might be 
played where the brackets are but i play it the no bracket way and it sounds Perfect
|-----------------------------------------------------|
|-----------------------------------------------------|
|--0-0-0---3-3-3---0-0-0---3-3-3-3--------------------| X8
|-(0-0-0)-(3-3-3)-(0-0-0)-(3-3-3-3)-------------------|

Little bass solo (guitar stops)
|-----------------------------------------------------|
|-----------------------3-3-5-5-5-5-------------------|
|--5--5-4--4-2--2-------------------0-0--3-3-3--5-----|
|-----------------3102--------------------------------|

Play in this order:

start on chorus
verse
chorus 
Bridge once played X8 just wait for the bridge
little bass solo
verse
Chorus
Bridge

If theres anything wrong then email me at: MC.spider@ntlworld.com
Comments