Nirvana - Lake Of Fire Chords & Tabs

 

Lake Of Fire Chords & Tabs

Nirvana Chords & Tabs

Version: 6 Type: Tab 0 ratings
1 star 2 stars 3 stars 4 stars 5 stars
comments

Lake Of Fire Tab

Nirvana
Lake of Fire solo

hey this is my first tab and it sounds pretty right to me...if u have ne corrections
email me at im_really_nott_kyle@hotmail.com
later
kyle

e-----2---2------------------------------------------------------------------|
B-2-5--2-5--5---------------------------------2----------5-------------------|
G------------4-2------------------------------2---2-4/6-6--6--4/2------------|
D----------------4-2----------------------2-4---4-----------------4-4-2------|
A--------------------4-3-2----------2-3-4------------------------------------|
E--------------------------5-2-2-2-5-----------------------------------------|

[ Tab from: http://www.guitartabs.cc/tabs/n/nirvana/lake_of_fire_tab_ver_6.html ]
e----------------------------------------------------------------------------|
B----------------------5-------7---5---------------2-------2-----------------|
G----------------4/6-6---6---6---6---4-6-2-4-------2-------2-----------------|
D--2------------------------------------------2--4---4-2h4---4-2-------------|
A-4-4-2----------------------------------------------------------4-3--2------|
E------5-2-2-2---------------------------------------------------------------|

e----------------------------------------------------------------------------|
B----------------------------------------------------------------------------|
G----------------------------------------------------------------------------|
D----------------2-2h4-------------------------------------------------------|
A---------2-3-4---------2----------------------------------------------------|
E-5-2-2-5-------------------5--2---------------------------------------------|
there it is hope u like it
Comments