Nirvana - Lake Of Fire Chords & Tabs

 

Lake Of Fire Chords & Tabs

Nirvana Chords & Tabs

Version: 4 Type: Tab 0 ratings
1 star 2 stars 3 stars 4 stars 5 stars
comments

Lake Of Fire Tab

   
--------------------------------------------------------
Lake of Fire - Nirvana
--------------------------------------------------------
Tabbed by: keith

Tuning: EADGBE

b= bend
()= optional

NOTE* There are 2 guitar parts in this song, the 2nd one is playin the basic verse rhythm.....

Now I was playin this with the song, and the versions listed were accurate,
meaning everythin sounded right when not playin with the song, but dl the
song, and then play it, it sounds off, so this sounds better with it...
*OBVIOUSLY LISTEN TO THE NIRVANA VERSION


Intro- listen to the song for the beat, there is a reason i space the power
chords apart, esp 244, 244, space, 244, 022, 022,listen to the song...ull get it..
e|------------------------------------------------------|
B|--------------------4b-2------------------------------|
G|----------------------------------------4-4-----------|
D|-4-4--4-2-2--7--4-4-------4-4--4-2-2-7--4-4-2-2--4----|
A|-4-4--4-2-2--7--4-4-------4-4--4-2-2-7--2-2-2-2--4----|
E|-2-2--2-0-0--5--2-2-------2-2--2-0-0-5------0-0--2----|


Intro continued
e|----------------------------------------------------------|
B|--------------------10--10-------5---5---7----------------|
G|------------------9----9---9---4---4---6------------------|
D|--4-4---4-2-7-4-------------------------------------------|
A|--4-4---4-2-7-4-------------------------------------------|
E|--2-2---2-0-5-2-------------------------------------------|

Verses
"Where do bad folks go when they die
e|-----------------------------------------------------|
B|--------------------4b-2-----------------------------|
G|---------------------------------------4-4-----------|
D|-4-4--4-2-2-7--4-4-------4-4--4-2-2-7--4-4--2-2-4----|
A|-4-4--4-2-2-7--4-4-------4-4--4-2-2-7--2-2--2-2-4----|
E|-2-2--2-0-0-5--2-2-------2-2--2-0-0-5-------0-0-2----|

[ Tab from: http://www.guitartabs.cc/tabs/n/nirvana/lake_of_fire_tab_ver_4.html ]
Verses continued
e|-----------------------------------------------------------|
B|-------------------------10---10------5--7-----------------|
G|-----------------------9----9----9--4----6-----------------|
D|--4-4-4-4-4-4--2--7-4--------------------------------------|
A|--4-4-4-4-4-4--2--7-4--------------------------------------|
E|--2-2-2-2-2-2--0--5-2--------------------------------------|


2nd Verse Part
"I knew a lady who came from Duluth"
(You can strum if you want, i like picking
e|----------------------------------------------------------|
B|--------5-----------------------5-------------------------|
G|------6---6---------6---------6---6--------5--------------|
D|----6-------------7---7-----6------------6---6------------|
A|--4-------------7---------4------------6------------------|
E|--------------5----------------------4--------------------|

e|----------------------------------------------------------|
B|--------5------------------------------11---------11------|
G|------6---6--------6-------------------11-11-10-9-11------|
D|----6------------7---7-------9--9--11---------------------|
A|--4------------7-----------9----9--11---------------------|
E|-------------5-----------7------7--9----------------------|


Basically thats it for the main rhythm, the next verse, he plays the intro
chords, thats about it, then before the solo, he goes back to the verse chords...


Dont have the solo yet, but it starts out somethin like this, if u can figure it
out, then have fun with it..

e|------------------------------------------------------|
B|----7-5-----------------------------------------------|
G|--6------11-9-----------------------------------------|
D|--------------11-9------------------------------------|
A|-------------------11-10-9----------------------------|
E|------------------------------------------------------|


That's it, if anyone figures out the solo, email me at
keithistheman84@hotmail.com, or just post a comment...
Comments