Nirvana - Jesus Dont Want Me For A Sunbeam Chords & Tabs

 

Jesus Dont Want Me For A Sunbeam Chords & Tabs

Nirvana Chords & Tabs

Version: 1 Type: Tab 1 rating
1 star 2 stars 3 stars 4 stars 5 stars
comments

Jesus Dont Want Me For A Sunbeam Tab

#-- File created with Instab - http://www.pconline.com/~smcarey/instab.html --#
#-----------------------------------------------------------------------------#

Author/Artist: NIRVANA
Title: Jesus Dont Want Me For A Sunbeam
Album: Unplugged in Neyork
Transcribed by: ARYN UNIVERSE
Email: aryn2000uk@yahoo.com

this is the correct way to play the intro and verse not 
any other version ive seen is correct. u cant go wrong

. 
 this is easy but effective especcially if some 1 is playing rythm.
if any 1 would like any other nirvana songs email me
[ Tab from: http://www.guitartabs.cc/tabs/n/nirvana/jesus_dont_want_me_for_a_sunbeam_tab.html ]
-----4-2----------------------------------------------------------------------
-5-5-----53-3-5-3-2----3------------------------------------------------------
-------------------2-2--2-----------------------------------------------------
------------------------------------------------------------------------------
------------------------------------------------------------------------------
------------------------------------------------------------------------------
   INTRO                                                                      

------------------------------------------------------------------------------
------------------------------------------------------------------------------
-4-4------------------------7-------------------------------------------------
-----7-6--7---------7---------7------7----------------------------------------
------------------------------------------------------------------------------
------------------------------------------------------------------------------
   CHORUS                                                                     
Comments