Nirvana - Jesus Doesnt Want Me For A Sunbeam Chords & Tabs

 

Jesus Doesnt Want Me For A Sunbeam Chords & Tabs

Nirvana Chords & Tabs

Version: 1 Type: Tab 2 ratings
1 star 2 stars 3 stars 4 stars 5 stars
comments

Jesus Doesnt Want Me For A Sunbeam Tab

This is off the "Unplugged in New York" CD. Although it is a cover, 
it is one of my favorite Nirvana songs. Questions, anything, Email me
Ryanbmx5@usa.net



JESUS DOESN'T WANT ME FOR A SUNBEAM
*This is easy, but fun to play*
Standard Tuning


*OPENING RIFF*
E|------------------------------------------|
B|------------------------------------------|
G|---9-9-9-9-9---7-7-7-7-----------7--------|
D|---9-9-9-9-9---7-7-7-7---7-7-7-7-7-7-7-7--|
A|---7-7-7-7-7---5-5-5-5---7-7-7-7-5-7-7-7--|
E|-------------------------5-5-5-5---5-5-5--|
[ Tab from: http://www.guitartabs.cc/tabs/n/nirvana/jesus_doesnt_want_me_for_a_sunbeam_tab.html ]
*VERSE* - Just pick lightly
E|-----------------------------------------| 
B|-----------------------------------------|
G|-------9----------7--------------7-------|
D|-----9---9------7---7--------7---7----7--|
A|---7-------7--5 ------5----7---7-5--7----|
E|-------------------------5---------5-----|

*CHORUS*
E|------------------------|------------------|
B|------------------------|------------------|
G|---9-9-9-9-9---7-7-7-7--|---------7--------|
D|---9-9-9-9-9---7-7-7-7--|-7-7-7-7-7-7-7-7--|
A|---7-7-7-7-7---5-5-5-5--|-7-7-7-7-5-7-7-7--|
E|------------------------|-5-5-5-5---5-5-5--|
   "Dont expect me to..."     "For me..."

Thats basically it. -Ryan
Ryanbmx5@usa.net

Comments