Nirvana - In Utero Chords & Tabs

 

In Utero Chords & Tabs

Nirvana Chords & Tabs

Version: 1 Type: Tab 0 ratings
1 star 2 stars 3 stars 4 stars 5 stars
comments

In Utero Tab

   
IN UTERO. This is the whole album, and this is not my work. I have only put the best tabes together, but i have improved it some places
Enjoy. Long live Kurt

1)-------------------------Serve The Servents--------------------------------

Intro:
1:-------14-----------0----9\|
2:-14------14----x----14---9\|
3:-13------------x----13---9\|
4:-12------------x----12-----|
5:-x------------------11-----|
6:-0------------------0------|

Verse:
1:----------------------0-0--------0-0---------------------|
2:-------------3--------0-0--------0-0--------------------3|
3:---2-2-------------3------------------------2-2----------|
4:--1---0-2-2-2-2-2--4-----4/5--------2-0----1---0-0-2-2-2-|
5:-2--2--------------4-----4/5-2------2-0-2-2--2-----------|
6:-----------------0-2-2-------0-0-------------------------|


1:---------0---0-0------------0---0----|
2:---------0---0-0------------0---0----|
3:------3------------------------------|
4:-2-2--4----------4/5-------------2--0|
5:------4----------4/5--2----------2--0|
6:----0-2-2-------------0-0-0----------|

Chorus:
1:-----------------------------------------0--------------|
2:----------------0--6--6-6--6-------------0----0-6--6-6-6|
3:----------------0--6--6-6--6------------------0-6--6-6-6|
4:-7---7--7-7--7--0--6--6-6--6--7-7--7--7----7--0-6--6-6-6|
5:-7-7-7--7-7--7-----4--4-4--4--7-7--7-------7----4--4-4-4|
6:-5-5-5--5-5--5--------4-4--4--5-5--5-------5-------4-4-4|

1:------------------0---------------------------------0|
2:--6---------------0------0--6-6-6--6-6-6------------0|
3:--6----------------------0--6-6-6--6-6-6-------------|
4:--6--7-7--7----------7---0--6-6-6--6-6-6--7-7--7-----|
5:--4--7-7--7----7-----7------4-4-4--4-4-4--7-7--7--7--|
6:--4--5-5--5----------5--------4-4---------5-5--5-----|

1:---------------------------------------------------------|
2:--6-6--6--6-6---6-------------------------5-5-5-x-x-5-5-5|
3:--6-6--6--6-6---6-------------------------5-5-5-x-x-5-5-5|
4:--6-6--6--6-6---6--4-4--4-4-4-4-4-4-4-----5-5-5-x-x-5-5-5|
5:--4-4--4--4-4---4--4-4--4-4-4-4-4-4-4-----3-3-3-x-x-3-3-3|
6:----------4-4---4--2-2--2-2-2-2-2-2-2-3-3-------x-x------|

Post Chorus:
1:------------------------------|
2:-11--------x/--13-----------x/|
3:-11--------x/---------------x/|
4:-10--------x/---------------x/|
5:--9--------x/-----------------|
6:------------------------------|

Solo :
--------------------------------|------------------------------------|
------------0-----0-------------|------------------------------------|
--4b-----4-----4-----4--4-4-4-4-|--4-4-4-4-4-4-4-4-4-4-4-4-4-4-4--4--|
--------------------------------|------------------------------------|
--------------------------------|------------------------------------|
--------------------------------|------------------------------------|


                                                                              
---------------------------|---------0----0-0-------|------------------------|
---------------------------|---------0----0-0-------|------------------------|
--4--2--0--0---------------|---------0----0-0-------|------------------------|
-----------0---------------|------------------------|-----------7r-----------|
-----------0---------------|------------------2--0--|--6/-7--7--7r-----5b----|
--------------3--3b---3b---|--0---------------------|--0------------------7--|


                                                                          
-----------------------|-----------------------|-------------------------|
-----------------------|-----------------------|-------------------------|
-----------------------|-----------------------|-------------------------|
-----------------------|-----------------------|-------------------------|
--0--2--2r---2----2~---|--2/-4--4--4b-----4r---|--4\-2--2--2~---2--2-----|
-----------------------|-----------------------|----------------------0--|


                                                               
--------------------------------|-----------------------------|
--------------------------------|-----------------------------|
--------------------------------|-----------------------------|
--------14--14b-14--14--14--14--|--14--14--14--14-------------|
--10b---16--16b-16--16--16--16--|--16--16--16b-16\------------|
--------------------------------|--------------------5--5~--5-|


                                                                         
-----------------------|---------0-----------|--------------------------|
-----------------------|---------0-----------|-----------------8--------|
-----------------------|---------------------|--------4--6/-7-----6--7--|
-----------------------|---------------------|--4--6--------------------|
-----------------------|---------------------|--------------------------|
--5/-7--7--7b-----7b---|--7~------------7----|--------------------------|


                                                                              
-----------------------------|---------------------------|-------------------|
--------10--10--10--8--------|---------------------------|-------------------|
--7/-9--9---9---9---7\-6--6--|--6/-7--7--6-7-6--7--6--7--|--2----------------|
-----------------------------|---------------------------|--2----------------|
-----------------------------|---------------------------|--0----------------|
-----------------------------|---------------------------|-------------------|


                        
----------------------|
----------------------|
--2--2--2--2----------|
--2--2--2--2----------|
--0--0--0--0----------|
----------------------|

    

2) ---------------------------Scentless Apprentice-------------------------
Drop D Tuning down 1/2 step
Intro/Chorus:
D#||------------------|------------------|--0--0--1-1--1-2-2-2-2-3/--19-|
A#||------------------|------------------|--0--0--0-0--0-0-0-0-0-0---0--|
F#||------------------|------------------|------------------------------|
C#||------------------|------------------|------------------------------|
G#||------------------|------------------|------------------------------|
C#||------------------|------------------|------------------------------|


                                                              
--0--0--1-1--1-2-2-2-2-3/--19-|--0--0--1-1--1-2-2-2-2-3/--19-|
--0--0--0-0--0-0-0-0-0-0---0--|--0--0--0-0--0-0-0-0-0-0---0--|
------------------------------|------------------------------|
------------------------------|------------------------------|
------------------------------|------------------------------|
------------------------------|------------------------------|


                                                              
--0--0--1-1--1-2-2-2-2-3/--19-|
--0--0--0-0--0-0-0-0-0-0---0--|
------------------------------|
------------------------------|
------------------------------|
------------------------------|


play that then play this riff, with plenty off dist:
                                                             
------------------------------|
------------------------------|
------------------------------|
------------------------------|
--4--4--2-4--4-4-4-4-4-2-4--4-|
--4--4--2-4--4-4-4-4-4-2-4--4-|

Verse: 
|---------------------------------|
|--4--4-4-4-4-4b4b4b4b4b4b4b4b4b4b|
|---------------------------------|
|---------------------------------|
|---------------------------------|
|---------------------------------|

Pre Chorus:
|------------------------------|--------------------------------|
|------------------------------|--------------------------------|
|------------------------------|--------------------------------|
|------------------------------|--------------------------------|
|--3----3-3-3-3-3/5-5--5-5-5-5-|--5/7-7-7-7--7-7-7-8-8-8-8--8-8-|
|------------------------------|--------------------------------|

|----------------------------------------------|
|----------------------------------------------|
|----------------------------------------------|
|----------------------------------------------|
|-8/10-10-10-10--10-10-10/12-12-12-12/15-15-15-|
|----------------------------------------------|

|-------------------------------------------------|
|-------------------------------------------------|
|-------------------------------------------------|
|-------------------------------------------------|
|-15\12-12-12-12-12-12-12-12-12-12-12b12b12b12b12b|
|-------------------------------------------------|


3) ------------------------------Heart Shaped Box---------------------
Tuning:-D-A-D-G-B-E

INTRO

 Guitar 1
|-----------------------------------------------------------------|
|-----------------------------------------------------------------|
|-----2-----------------------------2---------------------------0-|
|---2---2-----3-3------0----0---2-2---2-----3-----2/4-4---4---4-0-|
|-0---------3--(3)---0----0---0-0---------3-3-----------0---3-3---|
|---------3-------0---------------------3-----3-0-----------------|
|Guitar 2
|-----------------------------------------------------------------|
|-----------------------------------------------------------------|
|-----------------------------------------------------------------|
|-----------------------------------------------------------------|
|-------------------------------0---------------------------------|
|---------3-------0---------------------3-------0-----------------|


VERSE

 Guitar 1
|-----------------------------------------------------------------|
|-----2-----------------------------------------------------------|
|-----2-----------------------0-----2-----------------------------|
|---2---2-----3--------0------2---2-2-------3-----2/4-4---4-----0-|
|-0---------3---3----0----0-0---0---------3-------------0---3-3---|
|---------3-------0---------------------3-------0-----------------|
|Guitar 2
|-----------------------------------------------------------------|
|-----------------------------------------------------------------|
|-----------------------------------2-----------------------------|
|-----------------------------------2-------3---------------------|
|-0-----------------------------0---------------------------------|
|---------------------------------------3-------0-----------------|


 Guitar 1
|-----------------------------------------------------------------|
|-----2-----------------------------2-----------------------------|
|-----2-----------------------0-----2-----------------------------|
|---2---2-----3--------0----0-2---2---2-----3-----2/4-4---4-----0-|
|-0---------3---3----0----0-----0---------3---3---------0---3-3---|
|---------3-------0---------------------3-------0-----------------|
|Guitar 2
|-----------------------------------------------------------------|
|----(0)----------------------------------------------------------|
|-----2-----------------------------2-----------------------------|
|---2---2-----3---------------------2-------3---(2/)4-4-4-4-------|
|-0---------3---3---------------0---------------------------3-3---|
|---------3-------0-----------------------------------------------|


 Guitar 1
|-----------------------------------------------------------------|
|-----------------------------------------------------------------|
|-----2---------------------0-------2-----------------------------|
|---2---2-----3--------0--0---0---2-2-2-----3-----2/4-4---4----(4)|
|-0---------3---3----0----------0---------3---3---------0---3-3-0-|
|---------3-------0---------------------3-------------------------|
|Guitar 2
|-----------------------------------------------------------------|
|-----2-----------------------------------------------------------|
|-----2-----------------------------2-----------------------------|
|-------------3-------------------2---2-----3-----2/4-4-4-4-------|
|-0---------3---3---------------0---------3---3-------------3-3-0-|
|---------3-------0---------------------3-------------------------|


 Guitar 1                                       
|-----------------------------------------------------------------|
|-----2-----------------------------------------------------------|
|-----2-----------------------0-----2-----------------------------|
|---2---2-----3--------0----0-0---2---2-----3-----2/4-4---4-------|
|-0---------3---3----0----0-----0---------3---3---------0---3-3-0-|
|---------3-------0---------------------3-------0-----------------|
|Guitar 2                                       ^enter distortion
|-----------------------------------------------------------------|
|-----------------------------------------------------------------|
|-----2-----------------------------2-----------------------------|
|---2-2-2-----3-----------------2-2---2-----3-----2/4-4-4-4-------|
|-0---------3---3---------------0---------3---3-------------3-3-0-|
|---------3-------0---------------------3-------0-----------------|
                                                ^enter distortion
                                                 

CHORUS

 Guitar 1     x3
|---------------------------------------------------------------------|
|---------------------------------------------------------------------|
|-2-2-4b5-----4b5---------------4b5-2-2-4b5-----4b5---------------4b5-|
|-2-2-----3-3-----0-2/4-4---4-------2-2-----3-3-----0-2/4-4---4-------|
|-0-0-----3-3-----0-------0---3-----0-0-----3-3-----0-------0---3-----|
|---------3-3-----0-------------------------3-3-----0-----------------|
|Guitar 2                                                           x3
|---------------------------------------------------------------------|
|---------------------------------------------------------------------|
|-2-2-4b5-----4b5---------------4b5-2-2-4b5-----4b5---------------4b5-|
|-2-2-----3-3-----0-2/4-4-4-4-------2-2-----3-3-----0-2/4-4-4-4-------|
|-0-0-----3-3-----0-----------3-----0-0-----3-3-----0-----------3-----|
|---------3-3-----0-------------------------3-3-----0-----------------|


 Guitar 1
|---------------------------------------------------------------|
|---------------------------------------------------------------|
|---------------------4gb5r4------------------------------------|
|-3-3-3-3-3-3-3-3-0-----------3-3-3-3-3-3-3-3-0-2/4-4-4-4-----0-|
|-3-3-3-3-3-3-3-3-0-----------3-3-3-3-3-3-3-3-0-----------3-3-0-|
|-3-3-3-3-3-3-3-3-0-----------3-3-3-3-3-3-3-3-0-----------------|
|Guitar 2
|---------------------------------------------------------------|
|---------------------------------------------------------------|
|---------------------4gb5r4------------------------------------|
|-3-3-3-3-3-3-3-3-0-----------3-3-3-3-3-3-3-3-0-----------------|
|-3-3-3-3-3-3-3-3-0-----------3-3-3-3-3-3-3-3-0-----------------|
|-3-3-3-3-3-3-3-3-0-----------3-3-3-3-3-3-3-3-0-----------------|


VERSE 2

 Guitar 1
|-----------------------------------------------------------------|
|-----2-----------------------------2-----------------------------|
|-----2-----------------------------2-----------------------------|
|-2-2---2-----3--------0----0-----2---2-----3-----2/4-4---4-----0-|
|-0---------3---3----0----0---0-0---------3---3---------0---3-3---|
|---------3-------0---------------------3-------0-----------------|
|Guitar 2
|-----------------------------------------------------------------|
|-----------------------------------------------------------------|
|-----------------------------------2-----------------------------|
|-2-------3---------------------2-2---2-----3-----2/4-4-4-4-----0-|
|-0-------3---------------------0---------3---3-------------3-3---|
|----------------(0)--------------------3-------0-----------------|


 Guitar 1
|-----------------------------------------------------------------|
|-----2----------------------------(2)----------------------------|
|-----2-----------------------------2-----------------------------|
|---2---2-----3--------0----0-----2---2-----3-----2/4-4-4-4-----0-|
|-0---------3---3----0----0---0-0---------3---3-------------3-3---|
|---------3-------0---------------------3-------0-----------------|
|Guitar 2
|-----------------------------------------------------------------|
|-----2-----------------------------------------------------------|
|-----2-----------------------------2-----------------------------|
|-------------3-------------------2-2-2-----3-----2/4-4-4-4-----0-|
|-0---------3---3---------------0---------3---3-------------3-3---|
|---------3-------0---------------------3-------0-----------------|


 Guitar 1
|-----------------------------------------------------------------|
|-----2-----------------------------2-----------------------------|
|-----2-----------------------------2---------------------------0-|
|---2---2-----3--------0----0-----2---2-----3-----2/4-4---4-----0-|
|-0---------3---3----0----0-0---0---------3---3---------0---3-3---|
|---------3-------0---------------------3-------0-----------------|
|Guitar 2
|-----------------------------------------------------------------|
|-----2-----------------------------------------------------------|
|-----2-----------------------------2-----------------------------|
|---2---2-----3-----------------2-2-2-2-----3-----2/4-4---4-----0-|
|-0---------3---3---------------0---------3---3---------0---3-3---|
|---------3-------0---------------------3-------0-----------------|


 Guitar 1
|-----------------------------------------------------------------|
|-----------------------------0-----2-----------------------------|
|-----2-----------------------0-----2-----------------------------|
|---2---2-----3--------0----0-----2---2-----3-----2/4-4-4-4-------|
|-0---------3---3----0----0-----0---------3---3-------------3-3-0-|
|---------3-------0---------------------3-------0-----------------|
|Guitar 2          ^enter distortion
|-----------------------------------------------------------------|
|-----2-----------------------------0-----------------------------|
|-----2-----------------------------2-----------------------------|
|---2---2-----3-------------------2---2-----3-----2/4-4-4-4-------|
|-0---------3---3---------------0---------3---3-------------3-3-0-|
|---------3-------0---------------------3-------0-----------------|
^enter distortion


CHORUS 2

 Guitar 1     x3
|---------------------------------------------------------------------|
|---------------------------------------------------------------------|
|-2-2-4b5-----4b5---------------4b5-2-2-4b5-----4b5---------------4b5-|
|-2-2-----3-3-----0-2/4-4---4-------2-2-----3-3-----0-2/4-4---4-------|
|-0-0-----3-3-----0-------0---3-----0-0-----3-3-----0-------0---3-----|
|---------3-3-----0-------------------------3-3-----0-----------------|
|Guitar 2                                                           x3
|---------------------------------------------------------------------|
|---------------------------------------------------------------------|
|-2-2-4b5-----4b5---------------4b5-2-2-4b5-----4b5---------------4b5-|
|-2-2-----3-3-----0-2/4-4-4-4-------2-2-----3-3-----0-2/4-4-4-4-------|
|-0-0-----3-3-----0-----------3-----0-0-----3-3-----0-----------3-----|
|---------3-3-----0-------------------------3-3-----0-----------------| 


 Guitar 1
|---------------------------------------------------------------|
|---------------------------------------------------------------|
|---------------------4gb5r4------------------------------------|
|-3-3-3-3-3-3-3-3-0-----------3-3-3-3-3-3-3-3-0-2/4-4-4-4-------|
|-3-3-3-3-3-3-3-3-0-----------3-3-3-3-3-3-3-3-0-----------3-3---|
|-3-3-3-3-3-3-3-3-0-----------3-3-3-3-3-3-3-3-0-----------------|
|Guitar 2
|---------------------------------------------------------------|
|---------------------------------------------------------------|
|---------------------4gb5r4------------------------------------|
|-3-3-3-3-3-3-3-3-0-----------3-3-3-3-3-3-3-3-0-2/4-4-4-4-4-4-0-|
|-3-3-3-3-3-3-3-3-0-----------3-3-3-3-3-3-3-3-0-0---0-0-0-3-3-0-|
|-3-3-3-3-3-3-3-3-0-----------3-3-3-3-3-3-3-3-0-----------------|


SOLO - Guitar 1 only
|----------------------------------------------------------------------|
|---8b10r8p6----6b8r6----5b6r5-3--------8b10r8----6b8r6----5b6r5-3-----|
|---------------------3----------5p4--------------------3----------5p4-|
|-7----------5--------3---------------7--------5--------3--------------|
|----------------------------------------------------------------------|
|----------------------------------------------------------------------|

|---------------------------------|
|---------------------------------|
|-----------------2---------------|
|-2---------------2---------------|
|-0---------------0---------------|
|---------------------------------|


VERSE 3

 Guitar 1
|-----------------------------------------------------------------|
|-----2-----------------------------------------------------------|
|-----2-----------------------0-----2---------------------------0-|
|---2---2-----3--------0----0-----2-2-2-----3-----2/4-4---4-----0-|
|-0---------3---3----0----0-----0---------3---3---------0---3-3---|
|---------3-------0---------------------3-------0-----------------|
|Guitar 2
|-----------------------------------------------------------------|
|-----------------------------------------------------------------|
|-----------------------------------2---------------------------0-|
|---------------------------------2---2-----3-----------4-------0-|
|-0-----------------------------0---------3---3-------------3-3---|
|---------3-------0---------------------3-------0-----------------|


 Guitar 1
|-----------------------------------------------------------------|
|-----------------------------------------------------------------|
|-----2-----------------------2-----2---------------------------0-|
|---2-2-2-----3--------0----0-0-2---2-------3-----2/4-4---4-----0-|
|-0---------3---3----0----0---------------3---3---------0---3-3---|
|---------3-------0---------------------3-------0-----------------|
|Guitar 2
|-----------------------------------------------------------------|
|-----------------------------------------------------------------|
|-----------------------------------2-----------------------------|
|-------------------------------2---2-2-----3-----2/4-4---4-----0-|
|-0---------------------------------------3---3---------0---3-3---|
|---------3-------0---------------------3-------0-----------------|


 Guitar 1
|-----------------------------------------------------------------|
|-----2-----------------------0-----------------------------------|
|-----2-----------------------2-----2---------------------------0-|
|---2---2-----3--------0----0-----2-2-2-----3-----2/4-4---4-----0-|
|-0---------3---3----0----0-----0---------3---3---------0---3-3---|
|---------3-------0---------------------3-------0-----------------|
|Guitar 2
|-----------------------------------------------------------------|
|-----------------------------------------------------------------|
|-----2-----------------------------2-----------------------------|
|---2---2-----3-----------------2-2-2-2-----3-----2/4-4---4-----0-|
|-0---------3---3---------------0---------3---3---------0---3-3-0-|
|---------3-------0---------------------3-------0-----------------|


 Guitar 1
|-----------------------------------------------------------------|
|-----2-----------------------------------------------------------|
|-----2-----------------------0-----2-----------------------------|
|---2---2-----3--------0----0-0---2---2-----3-----2/4-4---4-------|
|-0---------3---3----0----0-----0---------3---3---------0---3-3-0-|
|---------3-------0---------------------3-------0-----------------|
|Guitar 2                                       ^enter distortion
|-----------------------------------------------------------------|
|-----------------------------------------------------------------|
|-----2-----------------------------2-----------------------------|
|---2---2-----3-----------------2-2-2-2-----3-----2/4-4-4-4-------|
|-0---------3---3---------------0---------3---3-------------3-3-0-|
|---------3-------0---------------------3-------0-----------------|
                                                ^enter distortion


CHORUS 3

 Guitar 1                                                           x3
|---------------------------------------------------------------------|
|---------------------------------------------------------------------|
|-2-2-4b5-----4b5---------------4b5-2-2-4b5-----4b5---------------4b5-|
|-2-2-----3-3-----0-2/4-4---4-------2-2-----3-3-----0-2/4-4---4-------|
|-0-0-----3-3-----0-------0---3-----0-0-----3-3-----0-------0---3-----|
|---------3-3-----0-------------------------3-3-----0-----------------|
|Guitar 2             x3
|---------------------------------------------------------------------|
|---------------------------------------------------------------------|
|-2-2-4b5-----4b5---------------4b5-2-2-4b5-----4b5---------------4b5-|
|-2-2-----3-3-----0-2/4-4-4-4-------2-2-----3-3-----0-2/4-4-4-4-------|
|-0-0-----3-3-----0-----------3-----0-0-----3-3-----0-----------3-----|
|---------3-3-----0-------------------------3-3-----0-----------------|


 Guitar 1          x4       x3
|--------------------|--------|
|--------------------|--------|
|--------------------|-4gb5r4-|
|-3-3-3-3-3-3-3-3-0--|--------|
|-3-3-3-3-3-3-3-3-0--|--------|
|-3-3-3-3-3-3-3-3-0--|--------|
|Guitar 2          x4       x3
|--------------------|--------|
|--------------------|--------|
|--------------------|-4gb5r4-|
|-3-3-3-3-3-3-3-3-0--|--------|
|-3-3-3-3-3-3-3-3-0--|--------|
|-3-3-3-3-3-3-3-3-0--|--------|

End on
 Guitar 1
|---------------------------|
|---------------------------|
|---------------------------|
|-4-4-4-4-------------------|
|---------------------------|
|---------------------------|
|Guitar 2
|---------------------------|
|---------------------------|
|---------------------------|
|-4-4-4-4-------------------|
|---------3-3---------------|
|-------------------------X-|               
                pick slide^

4) -------------Rape Me-----------------------                                                  
D#||--x----x----x----x----|---------------------------|
A#||--x----x----x----x----|--2----2-----x---5--5-5----|
F#||--x----x----x----x----|--2----2---2---x-5--5-5-0--|
C#||--x----x----x----x----|--2----2---2---x-5--5-5-0--|
G#||--x----x----x----x----|--0----0---------3--3---0--|
D#||--x----x----x----x----|------------------------0--|


                                                           
-------0--0-0-----3--3-------|-------------------------0--|
-------0--0-0-0-0-0--0---0-0-|--2----2--2-2-x-x-5--5-5-0--|
--------------0-0-0--0---0-0-|--2----2--2-2---x-5--5-5-0--|
--2----2--------0-0----0-0---|--2----2----2---x-5--5-5-0--|
--2--------------------0-0---|--0----0----------3--3-3-0--|
--0---------------3----0-0---|-------------------------0--|


                                                                              
--0----0---0----3--3-----|-------------------------|-------------------------|
--0----0---0--0-0--0-----|-------2-----------------|-------------------------|
--------------0-0--0-----|-------2-----------0-----|-------2-----------5-----|
--2----2------0-0--0--0--|--2-------------x--0-----|-------2-----------5-----|
--2----2------0-------0--|--0-------0--3--------3--|----------------5--------|
--0----0--------3-----0--|-------------------------|--0-------0--3--------0--|


                                                                              
-------------------------|-------------------------|-------------------------|
-------2-----------5-----|-------------------0-----|-------2-----------5-----|
-------2--------5--5-----|-------2-----------0-----|-------2-----------5-----|
--2-------------5--------|-------2--------0--------|--2-------------5--5-----|
--0-------0--3--------0--|----------------------0--|--0-------0--3--------0--|
-------------------------|--0-------0--3--------0--|----------------------0--|


                                                    
-------------------------|-------------------------|
-------0-----------0-----|-------2--------5--5-----|
-------2-----------0-----|--2----2--------5--5-----|
-------2--------0--------|--2----2--0--5--5--5-----|
----------------------0--|--0----------3--------0--|
--0-------0--3--------0--|----------------------0--|


                                                         
--0-------0-0-3--3-3-3-3-3--|---------------------------|
--0-------0-0-0--0-0-0-0-0--|--2----2--x-x-x-x-5--5--0--|
------------0-0--0-0-0-0-0--|--2----2--x-x-x-x-5--5--0--|
--2----2------0--0-0-0-0-0--|--2----2--x-x-x-x-5--5--0--|
--2----2--------------------|--0-------------x-3--3-----|
--0-----------3--3-3-3-3-3--|---------------------------|


                                                        
--0----0--0-0---3-3--3-----|---------------------------|
--0----0--0-0-0-0-0--0--0--|--2----2--x-x-x-x-5--5--0--|
--------------0-0-0--0--0--|--2----2--x-x-x-x-5--5--0--|
--2----2------0-0-0--0--0--|--2----2--x-x-x-x-5--5--0--|
--2---------------------0--|--0-------------x-3--3-----|
--0-------------3-3--3-----|---------------------------|


                                                        
--0----0--0-0---3-3--3-----|---------------------------|
--0----0--0-0-0-0-0--0--0--|--2----2--x-x-x-x-5--5--0--|
--------------0-0-0--0--0--|--2----2--x-x-x-x-5--5--0--|
--2----2------0-0-0--0--0--|--2----2--x-x-x-x-5--5--0--|
--2---------------------0--|--0-------------x-3--3-----|
--0-------------3-3--3-----|---------------------------|


                                                        
--0----0--0-0---3-3--3-----|---------------------------|
--0----0--0-0-0-0-0--0--0--|--2----2--x-x-x-x-5--5--0--|
--------------0-0-0--0--0--|--2----2--x-x-x-x-5--5--0--|
--2----2------0-0-0--0--0--|--2----2--x-x-x-x-5--5--0--|
--2---------------------0--|--0-------------x-3--3-----|
--0-------------3-3--3-----|---------------------------|


                                                       
--0----0--0-0-3------3-----|--------------------------|
--0----0--0-0-0--0-0-0-----|-----------x-x-x-5--5--0--|
--------------0--0-0-0-----|--2----2---x-x-x-5--5--0--|
--2----2------0--0-0-0--0--|--2----2-----x-x-5--5--0--|
--2---------------------0--|--0----0-------x-3--3-----|
--0-----------3------3-----|--------------------------|


                                                        
-------0--0-0-----3--------|----------x-x--------------|
--0----0--0-0-0-0-0--0-----|----------x-x-x-x-5--5--0--|
--------------0-0-0--0-----|--2----2--x-x-x-x-5--5--0--|
--2-----------0-0-0--0--0--|--2----2------x-x-5--5--0--|
--2---------------------0--|--0----0--------x-3--3-----|
--0---------------3--------|---------------------------|


                                                        
-------0--0-0-----3--------|---------------------------|
--0----0--0-0-0-0-0--0-----|----------x-x-x-x-5--5--0--|
--------------0-0-0--0-----|--2----2--x-x-x-x-5--5--0--|
--2-----------0-0-0--0--0--|--2----2--x-x-x-x-5--5--0--|
--2---------------------0--|--0----0--------x-3--3-----|
--0---------------3--------|---------------------------|


                                                        
--0----0--0-0-----3--3-----|----------x-x--------------|
--0----0--0-0-0-0-0--0-----|----------x-x-x-x-5--5--0--|
--------------0-0-0--0-----|--2----2------x-x-5--5--0--|
--2-----------0-0-0--0--0--|--2----2------x-x-5--5--0--|
--2---------------------0--|--0----0----------3--3--0--|
--0---------------3--3-----|---------------------------|


                                                      
--0----------3--3--3--3--|---------------------------|
--0----------0--0--0--0--|--2----2--x-x-x-x-5--5--0--|
-------------0--0--0--0--|--2----2--x-x-x-x-5--5--0--|
--2----2--2--0--0--0--0--|--2----2--x-x-x-x-5--5--0--|
--2----2--2--------------|--0-------------x-3--3-----|
--0----0--0--3--3--3--3--|---------------------------|


                                                        
--0----0--0-0---3-3--3-----|---------------------------|
--0----0--0-0-0-0-0--0--0--|--2----2--x-x-x-x-5--5--0--|
--------------0-0-0--0--0--|--2----2--x-x-x-x-5--5--0--|
--2----2------0-0-0--0--0--|--2----2--x-x-x-x-5--5--0--|
--2---------------------0--|--0-------------x-3--3-----|
--0-------------3-3--3-----|---------------------------|


                                                        
--0----0--0-0---3-3--3-----|---------------------------|
--0----0--0-0-0-0-0--0--0--|--2----2--x-x-x-x-5--5--0--|
--------------0-0-0--0--0--|--2----2--x-x-x-x-5--5--0--|
--2----2------0-0-0--0--0--|--2----2--x-x-x-x-5--5--0--|
--2---------------------0--|--0-------------x-3--3-----|
--0-------------3-3--3-----|---------------------------|


                                                        
--0----0--0-0---3-3--3-----|---------------------------|
--0----0--0-0-0-0-0--0--0--|--2----2--x-x-x-x-5--5--0--|
--------------0-0-0--0--0--|--2----2--x-x-x-x-5--5--0--|
--2----2------0-0-0--0--0--|--2----2--x-x-x-x-5--5--0--|
--2---------------------0--|--0-------------x-3--3-----|
--0-------------3-3--3-----|---------------------------|


                                                         
--0----0--0-0-3------3-----|----------------------------|
--0----0--0-0-0--0-0-0-----|----------------------------|
--------------0--0-0-0-----|--6--6-6-6--6-6-6--6--6-----|
--2----2------0--0-0-0--0--|--6--6-6-6--6-6-6--6--6-----|
--2---------------------0--|--4--4---4------4--4--4-----|
--0-----------3------3-----|-------------------------0--|


                                                                               
-------------------------|--------------------------|-------------------------|
-------------------------|--------------------------|-------------------------|
--2----2-----------------|--6----6--6-6-6--6--6-----|--2----2-----------------|
--2----2-----------------|--6----6--6-6-6--6--6-----|--2----2-----------------|
--0----0-----------------|--4----4------4--4--4-----|--0----0-----------------|
----------0--3--2--1--0--|-----------------------0--|----------0--3--2--1--0--|

[ Tab from: http://www.guitartabs.cc/tabs/n/nirvana/in_utero_tab.html ]
                                                                                
--------------------------|-------------------------|--------------------------|
--------------------------|-------------------------|----------6-6-6--6--6-----|
--6----6--6-6-6--6--6-----|--2----2-----------------|--6----6--6-6-6--6--6-----|
--6----6--6-6-6--6--6-----|--2----2-----------------|--6----6--6-6-6--6--6-----|
--4----4------4--4--4-----|--0----0-----------------|--4----4------4--4--4-----|
-----------------------0--|----------0--3--2--1--0--|-----------------------0--|


                                                    
-------------------------|-------------------------|
-------------------------|-------------------------|
--2----2-----------------|-------------------------|
--2----2-----------------|-------------------------|
--0----0-----------------|--3----3---3-3--3--3--3--|
----------0--3--2--1--0--|--1----1---1-1--1--1--1--|


                                                                     
----------------------------|-----------0--------|------------------|
----------------------------|-----------0--------|------------------|
----------------------------|--------------------|------------------|
----------------------------|--2-----------------|------------------|
--3/5--5--5--5-5-5--5--5/---|--2-----------------|------------------|
--1/3--3--3--3-3-3--3--3/---|--0-----------------|------------------|


                                                       
---------------------------|-----------------3--3-----|
--2----2--x-x-x-x-5--5--0--|--0----0---x-0-0-0--0-----|
--2----2--x-x-x-x-5--5--0--|-----------x-0-0-0--0--0--|
--2----2------x---5--5--0--|--2----2-------0-0--0--0--|
--0----0----------3-----0--|--2----2---------------0--|
------------------------0--|--0----0---------3--3--0--|


                                                      
--------------------------|--0----0---------3--3-----|
--2----2---x-x-x-5--5-----|--0----0---0-0-0-0--0-----|
--2----2---x-x-x-5--5--0--|-------------0-0-0--0--0--|
--2----2---x-x-x-5--5--0--|--2----2---------0--0--0--|
--0----0---------3--3--0--|--2----2---------------0--|
-----------------------0--|--0----0---------3--3--0--|


                                                        
---------------------------|-------0----------3--3-----|
--2----2--x-x-x-x-5--5--0--|--0----0--0-0-0-0-0--0--0--|
--2----2--x-x-x-x-5--5--0--|--------------0-0-0--0--0--|
--2----2------x-x-5--5--0--|--2----2------0-0-0--0--0--|
--0----0----------3--3--0--|--2----2----------------0--|
---------------------------|--0----0----------3-----0--|


                                                     
--------------------------|--0--------3--3-3-3-3-3--|
--2----2---x-x-x-5--5--0--|--0--------0--0-0-0-0-0--|
--2----2---x-x-x-5--5--0--|-----------0--0-0-0-0-0--|
--2----2---------5--5--0--|--2--------0--0-0-0-0-0--|
--0----0---------3--3--0--|--2----------------------|
-----------------------0--|--0--------3--3-3-3-3-3--|


                                                        
---------------------------|--0----0--0-0---3-3--3-----|
--2----2--x-x-x-x-5--5--0--|--0----0--0-0-0-0-0--0--0--|
--2----2--x-x-x-x-5--5--0--|--------------0-0-0--0--0--|
--2----2--x-x-x-x-5--5--0--|--2----2------0-0-0--0--0--|
--0-------------x-3--3-----|--2---------------------0--|
---------------------------|--0-------------3-3--3-----|


                                                        
---------------------------|--0----0--0-0---3-3--3-----|
--2----2--x-x-x-x-5--5--0--|--0----0--0-0-0-0-0--0--0--|
--2----2--x-x-x-x-5--5--0--|--------------0-0-0--0--0--|
--2----2--x-x-x-x-5--5--0--|--2----2------0-0-0--0--0--|
--0-------------x-3--3-----|--2---------------------0--|
---------------------------|--0-------------3-3--3-----|


                                                        
---------------------------|--0----0--0-0---3-3--3-----|
--2----2--x-x-x-x-5--5--0--|--0----0--0-0-0-0-0--0--0--|
--2----2--x-x-x-x-5--5--0--|--------------0-0-0--0--0--|
--2----2--x-x-x-x-5--5--0--|--2----2------0-0-0--0--0--|
--0-------------x-3--3-----|--2---------------------0--|
---------------------------|--0-------------3-3--3-----|


                                                        
---------------------------|--0----0--0-0-3------3-----|
--2----2--x-x-x-x-5--5--0--|--0----0--0-0-0--0-0-0-----|
--2----2--x-x-x-x-5--5--0--|--------------0--0-0-0-----|
--2----2--x-x-x-x-5--5--0--|--2----2------0--0-0-0--0--|
--0-------------x-3--3-----|--2---------------------0--|
---------------------------|--0-----------3------3-----|


                                                         2x
|-----------------------------|-------------3--3--3--3---||
|---------------5-5-5--5--x-x-|-------------0--0--0--0---||
|*--2----2--x-x-5-5-5--5--x-x-|-------------0--0--0--0--*||
|*--2----2--x-x-5-5-5--5--x-x-|--2----2--x--0--0--0--0--*||
|---0----0--x-x-3-3-3--3--x-x-|--2----2--x---------------||
|-----------------------------|--0----0--x--3--3--3--3---||


                                                                           
----------------------------|-------------3--3--3--3--|-------------------|
--------------5-5-5--5--x-x-|-------------0--0--0--0--|-------------------|
--2----2--x-x-5-5-5--5--x-x-|-------------0--0--0--0--|--2----------------|
--2----2--x-x-5-5-5--5--x-x-|--2----2--x--0--0--0--0--|--2----------------|
--0----0--x-x-3-3-3--3--x-x-|--2----2--x--------------|--0----------------|
----------------------------|--0----0--x--3--3--3--3--|-------------------|


                                                                              
-------------------|-------------------|------------------|------------------|
-------------------|-------------------|------------------|------------------|
-----------------0h|--2----------------|------------------|------------------|
-----------------0h|--2----------------|------------------|------------------|
-----------------0-|-------------------|------------------|------------------|
-------------------|-------------------|------------------|------------------|


                    
------------------||
------------------||
------------------||
------------------||
------------------||
------------------||




5---------------------Frances Farmer Will Have Her Revenge On Seattle---------------------

Tune down 1/2 step
  Intro
  Gtr.2 
  ------------------------------------------------
  ------------------------------------------------
  ------------------------------------------------
  ------------------------------------------------
  ------------------------6\-2--------------------
  ------------------------------------------------
 
  PM----------------------------------------------
  Gtr.1  rhy.fig. 1 (only gtr.1)
  ------------------------------------------------
  ------------------------------------------------
  ------------------------------------------------
  ------------------------------------------------
  -/6--6--6--6--6--6--6--6----2--2--2-------------
  -/4--4--4--4--4--4--4--4----0--0--0--0----------
 
  Gtr.2
  ------------------------------------------------
  ------------------------------------------------
  ------------------------------------------------
  ------------------------------------------------
  ------------------------------------------------
  -----------4\-2---------------------------------
  
  PM----------------------------------------------
  Gtr.1
  ------------------------------------------------
  ------------------------------------------------
  ------------------------------------------------
  ------------------------------------------------
  -/5--5--5--5----2--2--2-----/5--5--5------------
  -/3--3--3--3----0--0--0--0--/3--3--3--0---------
  
 
  Gtr.2
  ------------------------------------------------
  ------------------------------------------------
  ------------------------------------------------
  ------------------------------------------------
  ------------------------6\-2--------------------
  ------------------------------------------------
  
  PM----------------------------------------------
  Gtr.1
  ------------------------------------------------
  ------------------------------------------------
  ------------------------------------------------
  ------------------------------------------------
  -/6--6--6--6--6--6--6--6----2--2--2-------------
  -/4--4--4--4--4--4--4--4----0--0--0--0----------
  
  Gtr.2
  ------------------------------------------------
  ------------------------------------------------
  ------------------------------------------------
  ------------------------------------------------
  -----------5\-2---------------------------------
  ------------------------------------------------
  
  PM------------------------]                     
  Gtr.1
  ------------------------------------------------
  ------------------------------------------------
  ------------------------------------------------
  ------------------------------------------------
  -/5--5--5--5----2--2--2-----/5--5--5------------
  -/3--3--3--3----0--0--0--0--/3--3--3--0---------
  
  
  w/distortion
  Gtrs. 1 & 2
  ------------------------------------------------
  ------------------------------------------------
  --4---4----4--4----4--4------4--4---------------
  --4---4----4--4----4--4------4--4---------------
  --2---2----2--2----2--2------2--2---------------
  ------------------------------------------------
                               
                               (end of rhy.fig. 1)
  ------------------------------------------------
  ------------------------------------------------
  --4-----4--4------4---4-------------------------
  --4-----4--4------4---4-------------------------
  --2-----2--2------2---2---4----4----5/----------
  --------------------------2----2----3/----------

  w/rhy.fig.1 
  It's so relieving 
  to know that you're leaving
  as soon as you get paid.

  It's so relaxing 
  to hear that you're asking
  where ever you get your way
                    

  Fill A  
  PM----------]         PM-------]
  Gtr.2            Harm.            Harm.
  ------------------------------------------------
  ------------------------------------------------
  ------------------------------------------------
  -------------------6----------------6-----------
  --5--5--6--6-----x-----6--6--6----x-------------
  --3--3--4--4---x-------4--4--4------------------
                \rake/             \rake/

  PM------]      PM
  ------------------------------------------------
  ----------4-------------------------------------
  -------------------6--------------0-------------
  ----------------------------------0-------------
  --5---5--------5---------x---5----0-------------
  --3---3--------3---------x---3------------------

  ------------------------------------------------
  ------------------------------------------------
  --4---4----4--4----4--4------4--4---------------
  --4---4----4--4----4--4------4--4---------------
  --2---2----2--2----2--2------2--2---------------
  ------------------------------------------------
                               
        
  ------------------------------------------------
  ------------------------------------------------
  --4-----4--4------4---4-------------------------
  --4-----4--4------4---4-------------------------
  --2-----2--2------2---2---4----4----5/----------
  --------------------------2----2----3/----------

  w/Fill A   &  rhy.fig.1 (w/dist.)
  It's so soothing 
  to know that you'll sue me,
  this is starting to sound the same.
  
  rhy.fig. 2
  ------------------------------------------------
  ------------------------------------------------
  --6---6----6--6------6----/9-----9----9\--------
  --6---6----6--6------6----/9-----9----9\--------
  --4---4----6--6-----------/7-----7----7\--------
  --4---4----4--4---4-------/7----------7\--------

  ------------------------------------------------
  ------------------------------------------------
  --7---7-------4---4---4---4--4---4--4-----------
  --7---7---0---4---4---4---4--4---4--4--4--------
  --5---5---0---2---2---2---2--2---2--2--2--------
  --5---5-------2---2--------------2-----2--------

  ------------------------------------------------
  ------------------------------------------------
  --4---4--4--4--4--4--5--------------------------
  --4---4--4--4--4--4--5--------------------------
  --2---2--2--2--2--2--3--------------------------
  --2---2--2--2--2--2--3--------------------------

  ------------------------------------------------
  ------------------------------------------------
  --6---6----6--6------6----/9-----9----9\--------
  --6---6----6--6------6----/9-----9----9\--------
  --4---4----4--4-----------/7-----7----7\--------
  --4---4----4--4---4-------/7----------7\--------

  ------------------------------------------------
  ------------------------------------------------
  --7---7-------4---4---4---4--4---4--4-----------
  --7---7---0---4---4---4---4--4---4--4--4--------
  --5---5---0---2---2---2---2--2---2--2--2--------
  --5---5-------2---2--------------2-----2--------

  ------------------------------------------------
  ------------------------------------------------
  --4---4--4--4--4--4--5--------------------------
  --4---4--4--4--4--4--5--------------------------
  --2---2--2--2--2--2--3--------------------------
  --2---2--2--2--2--2--3--------------------------

  ------------------------------------------------
  ------------------------------------------------
  --6---6----6--6------6----/9-----9----9\--------
  --6---6----6--6------6----/9-----9----9\--------
  --4---4----6--6-----------/7-----7----7\--------
  --4---4----4--4---4-------/7----------7\--------

  ------------------------------------------------
  ------------------------------------------------
  --7---7-------4---4---4---4--4---4--4--4--------
  --7---7---0---4---4---4---4--4---4--4--4--------
  --5---5---0---2---2---2---2--2---2--2--2--------
  --5---5-------2---2-----------------------------


  ------------------------------------------------
  --------2----2--------------4-------------------
  --2----------2-----------------4--4---3---------   *Here you play these 
  --2---2------2---------4--4----4--4---3---------   chords randomly
  --0-------------0--1---2------------------------
  ------------------------------------------------

                    PM
  ------------------------------------------------
  -------2----------------------------------------
  --2--------2---2-------------5---5--5-----------
  --2--2-----2---2---------5---5---5--5---5---5---
  --0------------0---------5---5----------5---5---
  -------------------0-----3--------------3---3---

    PM--------------------]    (end of rhy.fig.2)
  ------------------------------------------------
  ------------------------------------------------
  ------------------------------------------------
  ------------------------------------------------
  --4--4--4--4--4--4--4--5------------------------
  --2--2--2--2--2--2--2--3------------------------

  w/rhy.fig.2
  I miss the comfort in been sad
  I miss the comfort in been sad
  I miss the comfort in been sad
  
  w/rhy.fig.1
  In her false wittness,
  we hope you're still with us
  to see if they float or drown.

  Our fav'rite patient,
  a display of patience,
  disease covered Puget Sound.

  She'll come back as fire
  to burn all the liars,
  leave a blanket of ash on the ground

  w/rhy.fig.2
  I miss the comfort in been sad
  I miss the comfort in been sad
  I miss the comfort in been sad
                           (here you don't play the last part
                           and play this)
                 Harm.  A.H.--]
  ------------------------------------------------
  ------------------------------------------------
  ------------------------------------------------
  ------------------------------------------------
  --4--4--4--4----5------0h1----------------------
  --2--2--2--2------------------------------------

  Interlude
  ------------------------------------------------
  -------------/9--9--9---9-----------------------
  -------------/9--9--9---9-----------------------
  --6---6------/9--9--9---9----0------------------
  --6---6------/7--7--7---7----0------------------
  --4---4----0------------------------------------
  
  ------------------------------------------------
  -------------/9--9--9---9-----------------------
  -------------/9--9--9---9-----------------------
  --6---6------/9--9--9---9----0------------------
  --6---6------/7--7--7---7----0------------------
  --4---4----0------------------------------------
  
  ------------------------------------------------
  -------------/9--9--9---9-----------------------
  -------------/9--9--9---9-----------------------
  --6---6------/9--9--9---9----0------------------
  --6---6------/7--7--7---7----0------------------
  --4---4----0------------------------------------

  ------------------------------------------------
  ------------------------------------------------
  --6---6---6--6--6--6---6---6--6--6--------------
  --6---6---6--6--6--6---6---6--6--6--------------   X3 (the interlude)
  --4---4---4--4--4--4---4---5--5--5----5--4-2p0--  
  ------------------------------------------------

  ------------------------------------------------
  ---------4-------------------2---2--2p0---------
  --4-------------4--3---------2---2--2p0---------
  --4---4---------4--3---2--2--2---2--2p0---------
  --2----------2---------0------------------------
  ------------------------------------------------

  -----3---3--------------------------------------
  -----0-------0----------------------------------
  -----0-------0-------0--------------------------
  -----0-------0-------0--------------------------
  -------------------------4--4--4--4--4--4--4--4-
  --3---------------3------2--2--2--2--2--2--2--3-


  w/rhy.fig.1
  It's so relaxing
  to know that you're asking
  where ever you get your way.

  It's so soothing 
  to know that you'll sue me
  this is starting to sound the same

  w/rhy.fig.2
  I miss the comfort in been sad
  I miss the comfort in been sad
  I miss the comfort in been sad

  And you finish with this.-
  ------------------------------------------------
  ------------------------------------------------
  ------------------------------------------------
  ------------------------------------------------
  --6---------------------------------------------
  --4-/-----19------------------------------------

6)-------------------Dumb-------------------------
Tune down to Db
Verses
--------------------------------------------
--------------------------------------------
-----------------2--------------------5-----
-----2--------2-----2-----5--------5-----5--
-----2--0--0--------------5--0--3-----------
--0--------------------3--------------------

Chorus
--0-----3---------------------
--0-----3---------------------
--1-----0---------------------
--2-----0---------------------
--2-----2---------------------
--0-----3---------------------

Interlude
-----------------------------
--4--5-----------------------
--4--5-----------------------
--4--5-----------------------
--2--3-----------------------
-----------------------------

The ending part where Kurt repeats I think I'm dumb is
the same chords as the chorus only each chord is strumed less

7)-------------------------Very Ape---------------------------------

guitar one plays this
 |--------------------------------------------------------------------- 
 |--------------X------------------------------------------------------ 
 |--------------------------------------------------------------------- 
 |--------------------------------------------------------------------- 
 |---5/7---7--------5/8---8-------5/7---7--------5/8----8-------------- 
 |---3/5---5--------3/6---6-------3/5---5--------3/6----6--------------  

  guitar two plays this
 |-------------------------------------------------------------------------| 
 |--14--14~~~~-14--12---14/15-----15--12----12h14---14-----12--14/15--15---| 
 |-------------------------------------------------------------------------| 
 |-------------------------------------------------------------------------| 
 |-------------------------------------------------------------------------| 
 |-------------------------------------------------------------------------|
 
 |--------------------------------------------------------------------------| 
 |--------------------------------------------------------------------------| 
 |--------------------------------------------------------------------------| 
 |--------------------------------------------------------------------------| 
 |--5----5---5----5--5--5--5---5\3----3-----3-------10-----9-----5----------| 
 |--3----3---3----3--3--3--3---3\1----1-----1--------8-----7-----3----------| 
                                                                            
 |--------------------------------------------------------------------------| 
 |-------12--12--12-12-12-12--12\10--10----10--9--9--9-----7--7--7/14-------| 
 |--------------------------------------------------------------------------| 
 |--------------------------------------------------------------------------| 
 |--------------------------------------------------------------------------| 
 |--------------------------------------------------------------------------| 


 |----/17---17------15-----17/18---18----15----17--17----15---17/18---18----| 
 |--------------------------------------------------------------------------| 
 |--------------------------------------------------------------------------| 
 |--------------------------------------------------------------------------| 
 |--------------------------------------------------------------------------| 
 |--------------------------------------------------------------------------|

 |--------------------------------------------------------------------------| 
 |---12-----12---12----12\10-----10---10---9--9--9--8--8/14---14--14--------| 
 |--------------------------------------------------------------------------| 
 |--------------------------------------------------------------------------| 
 |--------------------------------------------------------------------------| 
 |--------------------------------------------------------------------------| 

 -------------------- 
 ---12---12/15---15-- 
 -------------------- 
 -------------------- 
 --------------------
  -------------------- 

 |--------------------------------------------------------------------------| 
 |-----------------13----16----16--16----16/20------20----------------------| 
 |----14----14--------------------------------------------12---11---12--12--| 
 |--------------------------------------------------------------------------| 
 |--------------------------------------------------------------------------| 
 |--------------------------------------------------------------------------| 
                                                                            
 |--------------------------------------------------------------------------| 
 |--------------------------------------------------------------------------| 
 |--------------5/8-------8----8----8----8/12--------12---------------------| 
 |--------------5/8-------8----8----8----8/12--------12---------------------| 
 |-----7---X----3/6-------6----6----6----6/10--------10---5-----4----5/7----| 
 |-----5---X----------------------------------------------3-----2----3/5----| 
                                                                        

 |---------------| 
 |---------------| 
 |---------------| 
 |---------------| 
 |-----7----7----| 
 |-----5----5----| 
                
 |---------------| 
 |---------------| 
 |----------14\--| 
 |---------------| 
 |---------------| 
 |---------------|


8)---------------------------------Milk It--------------------------------
Intro:
Guitar 1
1:-12--------11---5-x-x-x-7------------------------------------
2:---11-12-10----5---------6-7/9-------8-6/7-------------------
3:--------9---------------------6-8-5-4-----7/6-8--------------
4:-------------9-----------------------------------------------
5:--------------0----------------------------------------------
Guitar 2
1:-7--5-------------7-7-7-7/9-6--4-----------10-11-16dontpick--
2:---6---7-6-5-4-3-----------8--5-5/0-rake--9------------------
3:--5---6---------4/----------------------------------/x-------
4:-----7------------------------------------------8---/x-------
5:-----------------------------0-------------------------------
Or something like that. In live versions, they pick random notes...

Chorus:
1:-------------------------------------------------------------
2:-------------------------------------------------------------
3:-------9-9---------------------------------------------------
4:-8-8-8-9-9-5-5---5-5-5-6-6-2-2-2-----------------------------
5:-8-8-8-7-7-5-5---5-5-5-6-6-2-2-2-----------------------------
6:-6-6-6-----3-3-0-3-3-3-4-4-0-0-0-----------------------------

Bridge:
1:-----------------8----------------3--------------------------
2:---5-5-------------------------------------------------------
3:--------------8-8----------------2---------------------------
4:---------------7---------------------------------------------
5:-1----3-3----------------------------------------------------
6:--0---6--6-6-0----6-6-6-6-6-6-6-0----------------------------

1:----------------------3\-------------------------------------
2:-------------------------------------------------------------
3:---------------------2---------------------------------------
4:-------------------------------------------------------------
5:-------------------------------------------------------------
6: 6 6 6 6 6 6 6 0 0 0-----------------------------------------
Like in intro, not sure if this is correct, sounds pretty close to the album version...

lyrics:
I am my own parasite
I don't need a host to live
We can feed off of each other
We can share our endorphins

Doll, Steak! Test meat!

Look on the bright side is suicide
Lost eyesight, I'm on your side
Angel left wing, right wing, broken wing
Lack of iron and/or sleeping

I own my own pet virus
I get to pet and name her
Her milk is my ***
My *** is her milk

Test meat! Doll steak!

Look on the bright side is suicide
Lost eyesight, I'm on your side
Angel left wing, right wing, broken wing
Lack of iron and/or sleeping

Doll steak! Test meat!

Look on the bright side suicide
Lost eyesight, I'm on your side
Angel left wing, right wing, broken wing
Lack of iron and/or sleeping
Protector of the kennel
Ecto-plasma, ecto-skeletal
Obituary birthday
Your scent is still here
In my place of recovery


9)-----------------------Pennyroyal Tea---------------------------

  This is the main acoustic strumming part just repeat this riff. The
  strumming may not be exact, just listen to cd and you'll get it.       
e:0------0-----0-----------0-----0-------------3-----3----------3-----3--|
B:1------1-----1-----------1-----1-------------0-----0----------0-----0--|
G:2------2-----2-----------2-----2-------------0-----0----------0-----0--|
D:2---------2-----2-----2-----2-----2-------------0----------------0-----|
A:0----0-------------0---------------------2----------------2------------|
E:--------------------------------------3----------------3---------------|
  I'm on .....       My time...       With Everyone......

  Start the
  Distortion
   this note
e:----3---|
B:----0---|
G:----0---|
D:----0---|
A:----2---|
E:----3---|


       Play this with distortion. (Sing verse 1 and 2 then 1 agian then go
       to verse three and play that..)
            sit and drink penny... Tea.................   
            Steal...thats inside.. Me..............       
e:------------------------------------------------------------------|
B:------------------------------------------------------------------|
G:---5--5-5--5-5-5-5/7--7-7--7-7---3--3-3-3--3-3-3--3-3-3-3-3-3-3-3/|
D:---5--5-5--5-5-5-5/7--7-7--7-7---3--3-3-3--3-3-3--3-3-3-3-3-3-3-3/|
A:---3--3-3--3-3-3-3/5--5-5--5-5---1--1-1-1--1-1-1--1-0-1-0-1-0-1-0/|
E:------------------------------------------------------------------|
   
e:--------------------------------------------------------------|
B:--------------------------------------------------------------|
G:-5--5-5--5-5-5-5/7--7-7--7-7---3--3-3-3--3-3-3--3-3-3-3-3-3-3-|
D:-5--5-5--5-5-5-5/7--7-7--7-7---3--3-3-3--3-3-3--3-3-3-3-3-3-3-|
A:-3--3-3--3-3-3-3/5--5-5--5-5---1--1-1-1--1-1-1--1-1-1-1-1-1-1-|
E:--------------------------------------------------------------|
                                                         Back to Acoustic
                                               
    SOLO
    This is the best i can figure out for the solo.If you have a better 
    Version of it please send me a copy.
e:-----------------------------------------------------------3----3-3-2-0----|
B:------------------------------------------------------------------------3-2|
G:--------2b(3)--2/3\2-------------2b(3)---2b(3)-----------------------------|
D:-----2----------------2-------2--------2-------2---------------------------|
A:--0------------------------0----------------------------2------------------|
E:-----------------------------------------------------3---------------------|
                      


  

e:----3-3-2-0-----------|
B:------------3-2-0-----|
G:------------------2-0-|
D:----------------------|
A:----------------------|
E:----------------------|
            Play this solo twice then go to next riff 

                                               
e:-------------------------------------------------------------------------|
B:-----5----5---5-5/7-----7----7--------3----3--3-3-3-3-3-3-3-3---------5--|
G:-----5----5---5-5/7-----7----7--------3----3--3-3-3-3-3-3-3-3---------5--|
D:---5----5-----5-5/7-----7----7------3----3----3-3-3-3-3-3-3-3-------5----|
A:-3------------3-3/5---5----5------1-----------1-0-1-0-1-0-1-0-----3------|
E:-------------------------------------------------------------------------|


B:--5---5-5/7-----7----7----3-3-3-3-3-3-3-|
G:--5---5-5/7-----7----7----3-3-3-3-3-3-3-|
D:5-----5-5/7-----7----7----3-3-3-3-3-3-3-|
A:------3-3/5---5----5------1-1-1-1-1-1-1-|
E:----------------------------------------|

After the solo go back to the Acoustic part and play  
the part under verse's 1 and 2 three times...

        
        
        OUTRO                     P=pulloff

      Distorded              Normal guitar
e:--------------------------------------------------|--|
B:------1-Hit-this-chord--------1-------------1p0---|--|
G:------2-a-few-times-then------2----------2--------|--|
D:------2-go-to-this...---------2-------2-----------|--|
A:--------------------------------------------------|--|
E:--------------------------------------------------|--|
                                         Let Ring

10)---------------------Radio Friendly Unit Shifter----------------------------

Intro:
      
3:14-14-14-14-14-14-14-14-14-14-14-14-14-14-14 bend up and down with feedback

    
2:-15-15-15-15-15-15-15-15-15-15-15-15-15-15-15-15---------- up and down
3:----------------------------------------------------------
4:----------------------------------------------------------                                                     
5:----------------------------------------------------4-4--4 up and down


1:--------------------------------------------------------
2:---------------x----------------------------------------
3:---------------x----------------------------------------
4:Bend-----------3----------------x----x----x-------------
5:4-4-4-4-4-4-4----x-x-x---x-x-x-x--x--x--7-x--7-x--7-x--7
6:-----------------x-x-x---x-x-x-x--0--17---17---17---17--


1:-----------------------------------------------------
2:----------------------------------4-0-5-0-5----------
3:-----------------------------------------------------
4:----x---------------x--------------------------------
5:-x--7-x--x--x-x--x--7-x---5--------------------------
6:-17---17-17-x-x--17---17--5-xx-5-5-----------5-/-12-\

End Of Intro/Chorus:
----------------|---------------0-|
----------------|---------------0-|
------5---4-----|-4-4-4---------0-|
--7-7-5---4-5---|-4-4-4-4-4-4-4-0-|
--7-7-3---2-5---|-2-2-2-4-4-4-4-0-|
--5-5-------3---|-------2-2-2-2-0-|

Verse:
1:------------------------------------------------------
2:------------13----------------------------------------
3:------------14----------------------------------------
4:------------14----------------------------------------
5:--0----------0--------0-------------------------11--11
6:--------------------------4--4--4--4--4--4--4--4------

1:-----------------------------------------
2:-----------------------------------------
3:----------------------------------------0
4:----------------------------------------0
5:-11--11--11--11--11--11--11--11--11--12-0
6:-----------------------------------------

Bridge:
1:------------------------------------------------------------------
2:------------------------------------------------------------------
3:--5-5-5-5-5-5-5-5-9-9-9-9-9-9-9-9---------------------------------
4:--5-5-5-5-5-5-5-5-9-9-9-9-9-9-9-9-7-7-7-7-7-7-7-7-5-5-5-5-5-5-5-5-
5:--3-3-3-3-3-3-3-3-7-7-7-7-7-7-7-7-7-7-7-7-7-7-7-7-5-5-5-5-5-5-5-5-
6:----------------------------------5-5-5-5-5-5-5-5-3-3-3-3-3-3-3-3-

The last part is just lots of feedback

-------------Tourettes---------------------
If you can't figure this one out by your self, then you suck

----------All Apologies----------------------
Eb ----------------------|----------------------|----------------------|- 
Bb ----------------------|----------------------|----------------------|- 
Gb ----------------------|----------------------|----------------------|- 
Db ----------------------|----------12-12-10-9--|----------------------|- 
Ab ---9-10-9-12-12-10-9--|---9-10-9-------------|---9-10-9-12-12-10-9--|- 
Db -0--------------------|-0--------------------|-0--------------------|- 


Eb ---------------------|- 
Bb ---------------------|- 
Gb ----------11-11-9----|- 
Db ------------------12-|- 
Ab ---9-10-9------------|- 
Db -0-------------------|- 

Chorus
Eb ----------------------------------------|- 
Bb ----------------------------------------|- 
Gb ----------------------------------------|- 
Db -5-5-5--0-5-5-5--0-5-5-5--0-5-5-5--0--7-|- 
Ab -5-5-5--0-5-5-5--0-5-5-5--0-5-5-5--0--7-|- 
Db -5-5-5--0-5-5-5--0-5-5-5--0-5-5-5--0--7-|- 



Comments