Nirvana - In His Hands Chords & Tabs

 

In His Hands Chords & Tabs

Nirvana Chords & Tabs

Version: 1 Type: Bass Tab 0 ratings
1 star 2 stars 3 stars 4 stars 5 stars
comments

In His Hands Bass Tab

In His Hands/In His Room
 
Standard Tuning
 
Guitar intro then bass comes in
 
Verses 
|---------------------------------------|
|---------------------------------------|
|---2--2-2------------------------------|
|-----------3-3-3-3--2--2-2--0-0-0-0----|
 
|---------------------------------------|
|---------------------------------------|
|---2--2-2--5-5-5-5--0--0-3b------------| The b means bend the string
|----------------------------0-2-3------|
 
Chorus
|---------------------------------------|
|---------------------------------------|
|-----------6-6-6-6--2-2-2-2--5-5-5-4---|
|---4--4-4------------------------------|x1
then
|---------------------------------------|
|---------------------------------------|
|-----------6-6-6-6--2-2-2-2--4-5-6-7---|
|---4--4-4------------------------------|x1
repeat as required
 
Bridge
|---------------------------------------|
|---------------------------------------|
|---------------------------------------|
|---4--4--4-4-4-4--2-2-2-2-2-2-2-2------|
 
Bass Solo
|---------------------------------------|
|---------------------------------------|
|---2--2-2------------------------------|
|-----------3-3-3-3--2—2/12-12-12-12----|repeat as required
Then Play Verse part for the “not gonna make it” bit
End Song on a B note
 
Bridge then...                      End
|----------------------------------|-----|
|----------------------------------|-----|
|----------------------------------|--2--|
|---4--4--4-4-4-4--2-2-2-2-2-2-2-2-|-----|
 
Tabbed by Jay 
 


[ Tab from: http://www.guitartabs.cc/tabs/n/nirvana/in_his_hands_btab.html ]
Comments