Nirvana - In Bloon Chords & Tabs

 

In Bloon Chords & Tabs

Nirvana Chords & Tabs

Version: 1 Type: Tab 1 rating
1 star 2 stars 3 stars 4 stars 5 stars
comments

In Bloon Tab

e|------------------------|-------------------------|
B|------------------------|-------------------------|
G|-3-3-3-3----------------|-3-3-3-3-----------------|
D|-3-3-3-3-5-5--3-3-3-3-6-|-3-3-3-3-5-5---3-3-3-3-6-|
A|-1-1-1-1-5-5--3-3-3-3-6-|-1-1-1-1-5-5---3-3-3-3-6-|
E|---------3-3--1-1-1-1-4-|---------3-3---1-1-1-1-4-|
[ Tab from: http://www.guitartabs.cc/tabs/n/nirvana/in_bloon_tab.html ]
e|--------------------------------------------------------|
B|--------------------------------------------------------|
G|-3-3-3-3-3--3--------------8-8-8-8-8--8-----------------|
D|-3-3-3-3-3--3-4-4-4-4-4--4-8-8-8-8-8--8-----------------|
A|-1-1-1-1-1--1-4-4-4-4-4--4-6-6-6-6-6--6-9-9-9-9-7-7-7-7-|
E|--------------2-2-2-2-2--2--------------7-7-7-7-5-5-5-5-| x4
Comments