Nirvana - In Bloom Chords & Tabs

 

In Bloom Chords & Tabs

Nirvana Chords & Tabs

Version: 11 Type: Tab 0 ratings
1 star 2 stars 3 stars 4 stars 5 stars
comments

In Bloom Tab

Tabed by:Paul Cody Robinson. I'm sure this tab is correct, it is played in dropped D.
If it is not correct E-mail me at cr05@yosemite.net questions and comments
are welcome to.


E|-------------------------------------------|
B|-------------------------------------------|
G|-3-3-3---------------3-3-3-----------------|
D|-3-3-3-5---3-3-3-6---3-3-3-5---3-3-3-6-----|
A|-1-1-1-5---3-3-3-6---1-1-1-5---3-3-3-6-----|
D|-------5---3-3-3-6---------5---3-3-3-6-----|


E|-------------------------------------------|
B|-------------------------------------------|
G|-3-3-3-3-3---------------------------------|
D|-3-3-3-3-3-0-5-5-5-5-5-0-13-13-13-13-13----|
A|-1-1-1-1-1-0-5-5-5-5-5-0-13-13-13-13-13----|
D|-----------0-5-5-5-5-5-0-13-13-13-13-13----|

[ Tab from: http://www.guitartabs.cc/tabs/n/nirvana/in_bloom_tab_ver_11.html ]
E|-------------------------------------------|
B|-------------------------------------------|
G|-------------------------------------------|
D|-0-11-11-11-11-9-9-9-9---------------------|
A|-0-11-11-11-11-9-9-9-9---------------------|
D|-0-11-11-11-11-9-9-9-9---------------------|


E|-------------------------------------------|
B|-------------------------------------------|
G|-------------------------------------------|
D|-------------------------------------------|
A|-------------------------------------------|
D|-0-8-8-8-8-8-0-5-5-5-5-5-0-13-13-13-13-13--|


E|-------------------------------------------|
B|-------------------------------------------|
G|-------------------------------------------|
D|-------------------------------------------|
A|-------------------------------------------|
D|-0-11-11-11-11-9-9-9-9---------------------|


Well there it is. For any questions or comments E-mail me at
cr05@yosemite.net
Thank You!
Comments