Nirvana - In Bloom Chords & Tabs

 

In Bloom Chords & Tabs

Nirvana Chords & Tabs

Version: 1 Type: Tab 6 ratings
1 star 2 stars 3 stars 4 stars 5 stars
comments

In Bloom Tab

Song: In Bloom
Artist: Nirvana
Albium: Nevermind
Tabbed By: Steve Lanno
E-Mail: JoHnYKnOxViLLeJr@Juno.com

This is the FULL correct version of this song. I know it's all right because
it's out of a sheet music book.

Intro: w/ Distortion
e|------------------------------------------------------------
B|------------------------------------------------------------
G|-3---3-3-3--------------------------------------------------
D|-3---3-3-3--5---5-5--5-5-5--3--3----3-3/6-6--6-6--6-------0-
A|-1---1-1-1--5---5-5--5-5-5--3--3----3-3/6-6--6-6--6---------
E|------------3---3-3--3-3-3--1--1----1-1/4-4--4-4--4--1--4---

e|---------------------------------------------
B|---------------------------------------------
G|-3---3-3-3--0--------------------------------
D|-3---3-3-3--0--5---5-5--5-5-5--3--3----3-3/6-
A|-1---1-1-1--0--5---5-5--5-5-5--3--3----3-3/6-
E|---------------3---3-3--3-3-3--1--1----1-1/4-

e|---------------------------------------------------------
B|---------------------------------------------------------
G|-3-3-3-3-3-X---------------8-8-8-8-8-X--3-3-3-3--2-2-2-2-
D|-3-3-3-3-3-X--4-4-4-4-4-X--8-8-8-8-8-X--3-3-3-3--2-2-2-2-
A|-1-1-1-1-1-X--4-4-4-4-4-X--6-6-6-6-6-X--1-1-1-1--0-0-0-0-
E|--------------2-2-2-2-2-X--------------------------------

e|---------------------------------------------------------
B|---------------------------------------------------------
G|-3-3-3-3-3-X---------------8-8-8-8-8-X--3-3-3-3--2-2-2-2-
D|-3-3-3-3-3-X--4-4-4-4-4-X--8-8-8-8-8-X--3-3-3-3--2-2-2-2-
A|-1-1-1-1-1-X--4-4-4-4-4-X--6-6-6-6-6-X--1-1-1-1--0-0-0-0-
E|--------------2-2-2-2-2-X--------------------------------

[ Tab from: http://www.guitartabs.cc/tabs/n/nirvana/in_bloom_tab.html ]
Verse 1: Clean
e|--------------------------------------------------------------
B|--------------------------------------------------------------
G|--------------------------------------------------------------
D|--------------------------------1-1-1-1-1---1-----------------
A|-1-1-1-1-1-1---1------------------------------2-2-2-2---------
E|------------------2-2-2-2-2---2-----------------------5-5-5-5-
"Sell        the  kids        for food.."                          

e|--------------------------------------------------------------
B|--------------------------------------------------------------
G|--------------------------------------------------------------
D|--------------------------------1-1-1-1-1---1-----------------
A|-1-1-1-1-1-1---1------------------------------2-2-2-2---------
E|------------------2-2-2-2-2---2-----------------------5-5-5-5-
"Weath   -   er   Chang   -   es moods


e|---------------------------------------------------------
B|---------------------------------------------------------
G|-3-3-3-3-3-X---------------8-8-8-8-8-X--3-3-3-3--2-2-2-2-
D|-3-3-3-3-3-X--4-4-4-4-4-X--8-8-8-8-8-X--3-3-3-3--2-2-2-2-
A|-1-1-1-1-1-X--4-4-4-4-4-X--6-6-6-6-6-X--1-1-1-1--0-0-0-0-
E|--------------2-2-2-2-2-X--------------------------------
"Spring     is     here       again"

e|---------------------------------------------------------
B|---------------------------------------------------------
G|-3-3-3-3-3-X---------------8-8-8-8-8-X--3-3-3-3--2-2-2-2-
D|-3-3-3-3-3-X--4-4-4-4-4-X--8-8-8-8-8-X--3-3-3-3--2-2-2-2-
A|-1-1-1-1-1-X--4-4-4-4-4-X--6-6-6-6-6-X--1-1-1-1--0-0-0-0-
E|--------------2-2-2-2-2-X--------------------------------
"Re   -   pro  -  duc  -  tive glands"


Chorus: w/ Distortion
e|-----------------
B|-----------------
G|-3--3-3----------
D|-3--3-3--5-5-5-5-   
Comments