Nirvana - In Bloom Chords & Tabs

 

In Bloom Chords & Tabs

Nirvana Chords & Tabs

Version: 9 Type: Bass Tab 0 ratings
1 star 2 stars 3 stars 4 stars 5 stars
comments

In Bloom Bass Tab

Intro
G|-----------------------------------|
D|-----------------------------------|
A|-5-5-5/1---------0-3-4-5-5-5/1-----|
E|---------1-1-1/5---------------1-5-|

Verso
G|---------------------------------------------|
D|-----------------------1-1-1-1--1------------|
A|-1-1-1-1--1-----------------------2-2-2-0-0-0|
E|------------2-2-2-2--2-----------------------|
[ Tab from: http://www.guitartabs.cc/tabs/n/nirvana/in_bloom_btab_ver_9.html ]
Chorus
G|-----------------------------------------|
D|-------------------2-2-2-2---------------|
A|-5-5-5-5\2-2-2-------------3-3-----------|
E|--------------3-3-3-------------0-3-0-3-0|

On second play of chorus right before you go back to intro, play this
G|-------------------------------------------------------------------------|
D|-------------------2-2-2-2-----------------------------------------------|
A|-5-5-5-5\2-2-2-------------3-3------------5-5-5-5-5-7-7-7-5-5-5-5-5-7-7-7|
E|--------------3-3-3-------------0-3-0-3-0--------------------------------|
Comments