Nirvana - If You Must Chords & Tabs

 

If You Must Chords & Tabs

Nirvana Chords & Tabs

Version: 2 Type: Tab 0 ratings
1 star 2 stars 3 stars 4 stars 5 stars
comments

If You Must Tab

If you must
by Nirvana

This is on one of the Outcesticide Cd's. can't remember which one though.
If anyone else can be bothered to look, please post it on the comments page.
Intro is just drums, then bass comes in. The guitar comes in on the verse
which goes like this:
[ Tab from: http://www.guitartabs.cc/tabs/n/nirvana/if_you_must_tab_ver_2.html ]
e|--------------------|
b|--------------------|
g|--------------------|
d|--------------------|
a|--0--1--2--3--2--1--|
e|--------------------|

Chorus:

e|--------------------------------|
b|--------------------------------|
g|--------------------------------|
d|--7--7--7--6--6--7--7--7--8--8--|
a|--7--7--7--6--6--7--7--7--8--8--|
e|--5--5--5--4--4--5--5--5--6--6--|

After the chorus just play:

e|-----|.|
b|-----|.| repeat bars.
g|--4--|.|
d|--4--|.|
a|--2--|.|
e|-----|.|
  P.M.

Any questions/comments email to the_legend_kurt@hotmail.com
Comments