Nirvana - I Hate Myself And Want To Die Chords & Tabs

 

I Hate Myself And Want To Die Chords & Tabs

Nirvana Chords & Tabs

Version: 2 Type: Tab 0 ratings
1 star 2 stars 3 stars 4 stars 5 stars
comments

I Hate Myself And Want To Die Tab

   
Originally submitted by: atticus102788



Artist: Nirvana
Song: I Hate Myself and Want to Die
Album: Beavis and Butt-Head Experience (1996)
       With the Lights Out (Disc 3) (2004)
Tuning: 1 1/2 steps down (Low/High C#-F#-B-E-G#-c#)
Tabber: the Koenig: 
                      www.thearkofnoah.com
                      Atticus102788@gmail.com
                      Atticus102788 on AIM



   Ahhh. Another 100% correct tab. My other tab is The Call of Ktulu, by Metallica.

   The guitars and basses in this song are tuned down 1 1/2 steps down.

   In this tab are Guitar tabs, Bass tabs, AAAAAnd..... VOCAL TABS! First time ever

   on mxtabs. The vocal tabs are in regular tuning, while the rest are tuned down.




   This was tabbed for Jackal. If you need a tab, IM or email me.



     Guitars


   Intro: Guitar Feedback

C#---(22)------------|
G#-------------------|
E--------------------|
B--------------------|
F#-------------------|
C#-------------------|


  Verse


  Guitar 1

C#------------------------|------------------------|------------------------|------------------------|
G#------------------------|------------------------|------------------------|------------------------|
E----7---7----------------|---7---7----------------|---7---7----------------|---7---7----------------|
B----7---7---4--4--3--4---|---7---7---4--4--3--2---|---7---7---4--4--3--4---|---7---7---4--4--3--2---|
F#---5---5---4--4--3--4---|---5---5---4--4--3--2---|---5---5---4--4--3--4---|---5---5---4--4--3--2---|
C#-----------2--2--1--2---|-----------2--2--1--0---|-----------2--2--1--2---|-----------2--2--1--0---|



  Guitar 2 (Distorted) Comes in, playing the same as Guitar 1

C#------------------------|------------------------|------------------------|------------------------|
G#------------------------|------------------------|------------------------|------------------------|
E----7---7----------------|---7---7----------------|---7---7----------------|---7---7----------------|
B----7---7---4--4--3--2---|---7---7---4--4--3--2---|---7---7---4--4--3--2---|---7---7---4--4--3--4---|
F#---5---5---4--4--3--2---|---5---5---4--4--3--2---|---5---5---4--4--3--2---|---5---5---4--4--3--4---|
C#-----------2--2--1--0---|-----------2--2--1--0---|-----------2--2--1--0---|-----------2--2--1--2---|



C#------------------------|------------------------|------------------------|------------------------|
G#------------------------|------------------------|------------------------|------------------------|
E----7---7----------------|---7---7----------------|---7---7----------------|---7---7----------------|
B----7---7---4--4--3--2---|---7---7---4--4--3--4---|---7---7---4--4--3--4---|---7---7---4--4--3--2---|
F#---5---5---4--4--3--2---|---5---5---4--4--3--4---|---5---5---4--4--3--4---|---5---5---4--4--3--2---|
C#-----------2--2--1--0---|-----------2--2--1--2---|-----------2--2--1--2---|-----------2--2--1--0---|




  Chorus


C#------------------------|------------------------|------------------------|
G#------------------------|------------------------|------------------------|
E----2---2---5--5--5--5---|---2---2---5--5--5--5---|---2---2---5--5--5--5---|
B----2---2---5--5--5--5---|---2---2---5--5--5--5---|---2---2---5--5--5--5---|
F#---0---0---3--3--3--3---|---0---0---3--3--3--3---|---0---0---3--3--3--3---|
C#------------------------|------------------------|------------------------|




C#------------------------|------------------------|------------------------|
G#------------------------|------------------------|------------------------|
E----2---2---5--5--5--5---|---2---2---5--5--5--5---|---2---2---5--5--5--5---|
B----2---2---5--5--5--5---|---2---2---5--5--5--5---|---2---2---5--5--5--5---|
F#---0---0---3--3--3--3---|---0---0---3--3--3--3---|---0---0---3--3--3--3---|
C#------------------------|------------------------|------------------------|




C#------------------------|------------------------|------------------------|
G#------------------------|------------------------|------------------------|
E----2---2---5--5--5--5---|---2---2---5--5--5--5---|---2---2---5--5--5--6---|
B----2---2---5--5--5--5---|---2---2---5--5--5--5---|---2---2---5--5--5--6---|
F#---0---0---3--3--3--3---|---0---0---3--3--3--3---|---0---0---3--3--3--4---|
C#------------------------|------------------------|------------------------|



  Verse


C#------------------------|------------------------|------------------------|------------------------|
G#------------------------|------------------------|------------------------|------------------------|
E----7---7----------------|---7---7----------------|---7---7----------------|---7---7----------------|
B----7---7---4--4--3--4---|---7---7---4--4--3--2---|---7---7---4--4--3--2---|---7---7---4--4--3--2---|
F#---5---5---4--4--3--4---|---5---5---4--4--3--2---|---5---5---4--4--3--2---|---5---5---4--4--3--2---|
C#-----------2--2--1--2---|-----------2--2--1--0---|-----------2--2--1--0---|-----------2--2--1--0---|



|C#------------------------|------------------------|------------------------|------------------------|
|G#------------------------|------------------------|------------------------|------------------------|
|E----7---7----------------|---7---7----------------|---7---7----------------|---7---7----------------|
|B----7---7---4--4--3--2---|---7---7---4--4--3--4---|---7---7---4--4--3--2---|---7---7---4--4--3--2---|
|F#---5---5---4--4--3--2---|---5---5---4--4--3--4---|---5---5---4--4--3--2---|---5---5---4--4--3--2---|
|C#-----------2--2--1--0---|-----------2--2--1--2---|-----------2--2--1--0---|-----------2--2--1--0---|
|                          |                        |                        |                        |
|                          |                        |                        |                        |
|   Guitar 2               |                        |                        |                        |
|C#------------------------|------------------------|---7---7----------------|------------------------|
|G#------------------------|------------------------|------------------------|------------------------|
|E-------------------------|------------------------|------------------------|------------------------|
|B-------------------------|------------------------|------------------------|------------------------|
|F#------------------------|------------------------|------------------------|------------------------|
|C#------------------------|------------------------|------------------------|------------------------|



 Chorus


C#------------------------|------------------------|------------------------|
G#------------------------|------------------------|------------------------|
E----2---2---5--5--5--5---|---2---2---5--5--5--5---|---2---2---5--5--5--5---|
B----2---2---5--5--5--5---|---2---2---5--5--5--5---|---2---2---5--5--5--5---|
F#---0---0---3--3--3--3---|---0---0---3--3--3--3---|---0---0---3--3--3--3---|
C#------------------------|------------------------|------------------------|




C#------------------------|------------------------|------------------------|
G#------------------------|------------------------|------------------------|
E----2---2---5--5--5--5---|---2---2---5--5--5--5---|---2---2---5--5--5--5---|
B----2---2---5--5--5--5---|---2---2---5--5--5--5---|---2---2---5--5--5--5---|
F#---0---0---3--3--3--3---|---0---0---3--3--3--3---|---0---0---3--3--3--3---|
C#------------------------|------------------------|------------------------|




C#------------------------|------------------------|------------------------|
G#------------------------|------------------------|------------------------|
E----2---2---5--5--5--5---|---2---2---5--5--5--5---|---2---2---5--5--5--6---|
B----2---2---5--5--5--5---|---2---2---5--5--5--5---|---2---2---5--5--5--6---|
F#---0---0---3--3--3--3---|---0---0---3--3--3--3---|---0---0---3--3--3--4---|
C#------------------------|------------------------|------------------------|


  Solo

                                          Let Ring
|C#------------------------------------|------------------------------------------|
|G#------------------------------------|------------------------------------------|
|E-------------------------------------|------------------------------------------|
|B---------------------------7---6--5--|---4--------------------------------------|
|F#---5----------4---5---7-------------|------------------------------------------|
|C#---------/5-------------------------|------------------------------------------|
|                                      |                                          |
|                                      |                                          |
|                                      |                                          |
|                                      |                                          |
|  2nd Guitar Clean (Faint, Rt Speaker)|                                          |
|C#-------8----------------------------|-----------7--8--7--8--10--10--8--7-------|
|G#----------10------------------------|-------10----------------------------10---|
|E-----------------------6-------------|---6--------------------------------------|
|B-----------------------4-------------|---4--------------------------------------|
|F#----------------------4-------------|---4--------------------------------------|
|C#------------------------------------|------------------------------------------|



               Let Ring               Let Ring
|C#----------------------------------------------|----------------------------------------|
|G#----------------------------------------------|----------------------------------------|
|E-----------------------------------------------|----------------------------------------|
|B-----5-----------------------------------------|----------------------------------------|
|F#--------9\7--9--------------------------------|----------------------------------------|
|C#---------------------\7---5---3---2-----------|----------------------------------------|
|                                                |                                        |
|                                                |                                        |
|                                                |                                        |
|                                                |                                        |
|C#--------------------------------7b(8)--7------|----------------------------------------|
|G#--9--9--10---9--10---7---9--10------------10--|--9---9--10-----------8-----------------|
|E-----------------------------------------------|-------------11---11-----11------9------|
|B-----------------------------------------------|-----------------------------11-----11--|
|F#----------------------------------------------|----------------------------------------|
|C#----------------------------------------------|----------------------------------------|





  Chorus


C#------------------------|------------------------|------------------------|
G#------------------------|------------------------|------------------------|
E----2---2---5--5--5--5---|---2---2---5--5--5--5---|---2---2---5--5--5--5---|
B----2---2---5--5--5--5---|---2---2---5--5--5--5---|---2---2---5--5--5--5---|
F#---0---0---3--3--3--3---|---0---0---3--3--3--3---|---0---0---3--3--3--3---|
C#------------------------|------------------------|------------------------|




C#------------------------|------------------------|------------------------|
G#------------------------|------------------------|------------------------|
E----2---2---5--5--5--5---|---2---2---5--5--5--5---|---2---2---5--5--5--5---|
B----2---2---5--5--5--5---|---2---2---5--5--5--5---|---2---2---5--5--5--5---|
F#---0---0---3--3--3--3---|---0---0---3--3--3--3---|---0---0---3--3--3--3---|
C#------------------------|------------------------|------------------------|




C#------------------------|------------------------|------------------------|
G#------------------------|------------------------|------------------------|
E----2---2---5--5--5--5---|---2---2---5--5--5--5---|---2---2---5--5--5--6---|
B----2---2---5--5--5--5---|---2---2---5--5--5--5---|---2---2---5--5--5--6---|
F#---0---0---3--3--3--3---|---0---0---3--3--3--3---|---0---0---3--3--3--4---|
C#------------------------|------------------------|------------------------|



  Verse


C#------------------------|------------------------|------------------------|------------------------|
G#------------------------|------------------------|------------------------|------------------------|
E----7---7----------------|---7---7----------------|---7---7----------------|---7---7----------------|
B----7---7---4--4--3--2---|---7---7---4--4--3--2---|---7---7---4--4--3--2---|---7---7---4--4--3--2---|
F#---5---5---4--4--3--2---|---5---5---4--4--3--2---|---5---5---4--4--3--2---|---5---5---4--4--3--2---|
C#-----------2--2--1--0---|-----------2--2--1--0---|-----------2--2--1--0---|-----------2--2--1--0---|



C#------------------------|------------------------|------------------------|------------------------|
G#------------------------|------------------------|------------------------|------------------------|
E----7---7----------------|---7---7----------------|---7---7----------------|---7---7----------------|
B----7---7---4--4--3--2---|---7---7---4--4--3--4---|---7---7---4--4--3--4---|---7---7---4--4--3--2---|
F#---5---5---4--4--3--2---|---5---5---4--4--3--4---|---5---5---4--4--3--4---|---5---5---4--4--3--2---|
C#-----------2--2--1--0---|-----------2--2--1--2---|-----------2--2--1--2---|-----------2--2--1--0---|




  Chorus


C#--------------------------|--------------------------|--------------------------|
G#--------------------------|--------------------------|--------------------------|
E----2---2---x-x--5--5--5---|---2---2---x-x--5--5--5---|---2---2---x-x--5--5--5---|
B----2---2---x-x--5--5--5---|---2---2---x-x--5--5--5---|---2---2---x-x--5--5--5---|
F#---0---0---x-x--3--3--3---|---0---0---x-x--3--3--3---|---0---0---x-x--3--3--3---|
C#--------------------------|--------------------------|--------------------------|




C#--------------------------|--------------------------|--------------------------|
G#--------------------------|--------------------------|--------------------------|
E----2---2---x-x--5--5--5---|---2---2---x-x--5--5--5---|---2---2---x-x--5--5--5---|
B----2---2---x-x--5--5--5---|---2---2---x-x--5--5--5---|---2---2---x-x--5--5--5---|
F#---0---0---x-x--3--3--3---|---0---0---x-x--3--3--3---|---0---0---x-x--3--3--3---|
C#--------------------------|--------------------------|--------------------------|





C#--------------------------|--------------------------|--------------------------|
G#--------------------------|--------------------------|--------------------------|
E----2---2---x-x--5--5--5---|---2---2---x-x--5--5--5---|---2---2---x-x--5--5--6---|
B----2---2---x-x--5--5--5---|---2---2---x-x--5--5--5---|---2---2---x-x--5--5--6---|
F#---0---0---x-x--3--3--3---|---0---0---x-x--3--3--3---|---0---0---x-x--3--3--4---|
C#--------------------------|--------------------------|--------------------------|



  Outro


C#----------------------------|
G#----------------------------|
E----7---7--x-x---------------|
B----7---7--x-x--4--4--3--2---|
F#---5---5--x-x--4--4--3--2---|
C#---------------2--2--1--0---|




  Feedback


C#---(22)---|
G#----------|
E-----------|
B-----------|
F#----------|
C#----------|



      Vocals - Regular tuning




  Verse


E-----------------------------|-------------------------------|---------------------------|------------------------------|
B-----------------------------|-------------------------------|---------------------------|------------------------------|
G---8--8--6-------------------|--8-8--6-------------6---------|--8---8---6----------------|--8-8----6--------------6-----|
D--------------9---9--9--7/8--|----------9---9----8------8----|----------------9--9--9-8--|-------------9---9---8-----8--|
A-----------------------------|-------------------------------|---------------------------|------------------------------|
E-----------------------------|-------------------------------|---------------------------|------------------------------|


Chorus


|E-------------------|--------------------|-------------------|--------------------|
|B-------------------|--------------------|-------------------|--------------------|
|G---9--9-(9)/11-----|--9----9b(11)-------|---9--9-(9)/11-----|--9----9b(11)-------|
|D---------------11--|--------------11----|---------------11--|--------------11----|
|A-------------------|--------------------|-------------------|--------------------|
|E-------------------|--------------------|-------------------|--------------------|
|    In the someday. |                    |                   |                    |
|                    |                    |                   |                    |
|                    |                    |                   |                    |
|  Backing Vocals    |                    |                   |                    |
|E-------------------|--------------------|-------------------|--------------------|
|B--10-10-(10)/11----|--10--10b(11)-------|--10-10-(10)/11----|--10--10b(11)-------|
|G----------------11-|-------------11-----|----------------11-|-------------11-----|
|D-------------------|--------------------|-------------------|--------------------|
|A-------------------|--------------------|-------------------|--------------------|
|E-------------------|--------------------|-------------------|--------------------|




[ Tab from: http://www.guitartabs.cc/tabs/n/nirvana/i_hate_myself_and_want_to_die_tab_ver_2.html ]
|E-------------------|--------------------|-------------------|--------------------|
|B-------------------|--------------------|-------------------|--------------------|
|G---9--9-(9)/11-----|--9----9b(11)-------|---9--9-(9)/11-----|--9----9b(11)-------|
|D---------------11--|--------------11----|---------------11--|--------------11----|
|A-------------------|--------------------|-------------------|--------------------|
|E-------------------|--------------------|-------------------|--------------------|
|    In the someday  |                    |                   |                    |
|                    |                    |                   |                    |
|                    |                    |                   |                    |
|  Backing Vocals    |                    |                   |                    |
|E-------------------|--------------------|-------------------|--------------------|
|B--10-10-(10)/11----|--10--10b(11)-------|--10-10-(10)/11----|--10--10b(11)-------|
|G----------------11-|-------------11-----|----------------11-|-------------11-----|
|D-------------------|--------------------|-------------------|--------------------|
|A-------------------|--------------------|-------------------|--------------------|
|E-------------------|--------------------|-------------------|--------------------|




  Verse


E--------------------------------|--------------------------------------|
B--------------------------------|--------------------------------------|
G---8--8---6---------------------|--8-----8--6---------------6----------|
D----------------9---9-9----8----|---------------9-9--9--8--------8-----|
A--------------------------------|--------------------------------------|
E--------------------------------|--------------------------------------|

  



E--------------------------------|------------------------------|
B--------------------------------|------------------------------|
G--8---8----6----------6---------|--8------8---6-----------6----|
D---------------9--9--------8----|-----------------9-9-8-----8--|
B--------------------------------|------------------------------|
E--------------------------------|------------------------------|






  Chorus


|E-------------------|--------------------|-------------------|--------------------|
|B-------------------|--------------------|-------------------|--------------------|
|G---9--9-(9)/11-----|--9----9b(11)-------|---9--9-(9)/11-----|--9----9b(11)-------|
|D---------------11--|--------------11----|---------------11--|--------------11----|
|A-------------------|--------------------|-------------------|--------------------|
|E-------------------|--------------------|-------------------|--------------------|
|    In the someday  |                    |                   |                    |
|                    |                    |                   |                    |
|                    |                    |                   |                    |
|  Backing Vocals    |                    |                   |                    |
|E-------------------|--------------------|-------------------|--------------------|
|B--10-10-(10)/11----|--10--10b(11)-------|--10-10-(10)/11----|--10--10b(11)-------|
|G----------------11-|-------------11-----|----------------11-|-------------11-----|
|D-------------------|--------------------|-------------------|--------------------|
|A-------------------|--------------------|-------------------|--------------------|
|E-------------------|--------------------|-------------------|--------------------|





|E-------------------|--------------------|-------------------|--------------------|
|B-------------------|--------------------|-------------------|--------------------|
|G---9--9-(9)/11-----|--9----9b(11)-------|---9--9-(9)/11-----|--9----9b(11)-------|
|D---------------11--|--------------11----|---------------11--|--------------11----|
|A-------------------|--------------------|-------------------|--------------------|
|E-------------------|--------------------|-------------------|--------------------|
|    In the someday  |                    |                   |                    |
|                    |                    |                   |                    |
|                    |                    |                   |                    |
|  Backing Vocals    |                    |                   |                    |
|E-------------------|--------------------|-------------------|--------------------|
|B--10-10-(10)/11----|--10--10b(11)-------|--10-10-(10)/11----|--10--10b(11)-------|
|G----------------11-|-------------11-----|----------------11-|-------------11-----|
|D-------------------|--------------------|-------------------|--------------------|
|A-------------------|--------------------|-------------------|--------------------|
|E-------------------|--------------------|-------------------|--------------------|




  (Guitar Solo)


  Spoken softly -   Most people don't realize ....
       
             
 Chorus


|E-------------------|--------------------|-------------------|--------------------|
|B-------------------|--------------------|-------------------|--------------------|
|G---9--9-(9)/11-----|--9----9b(11)-------|---9--9-(9)/11-----|--9----9b(11)-------|
|D---------------11--|--------------11----|---------------11--|--------------11----|
|A-------------------|--------------------|-------------------|--------------------|
|E-------------------|--------------------|-------------------|--------------------|
|    In the someday  |                    |                   |                    |
|                    |                    |                   |                    |
|                    |                    |                   |                    |
|  Backing Vocals    |                    |                   |                    |
|E-------------------|--------------------|-------------------|--------------------|
|B--10-10-(10)/11----|--10--10b(11)-------|--10-10-(10)/11----|--10--10b(11)-------|
|G----------------11-|-------------11-----|----------------11-|-------------11-----|
|D-------------------|--------------------|-------------------|--------------------|
|A-------------------|--------------------|-------------------|--------------------|
|E-------------------|--------------------|-------------------|--------------------|





|E-------------------|--------------------|-------------------|--------------------|
|B-------------------|--------------------|-------------------|--------------------|
|G---9--9-(9)/11-----|--9----9b(11)-------|---9--9-(9)/11-----|--9----9b(11)-------|
|D---------------11--|--------------11----|---------------11--|--------------11----|
|A-------------------|--------------------|-------------------|--------------------|
|E-------------------|--------------------|-------------------|--------------------|
|    In the someday  |                    |                   |                    |
|                    |                    |                   |                    |
|                    |                    |                   |                    |
|  Backing Vocals    |                    |                   |                    |
|E-------------------|--------------------|-------------------|--------------------|
|B--10-10-(10)/11----|--10--10b(11)-------|--10-10-(10)/11----|--10--10b(11)-------|
|G----------------11-|-------------11-----|----------------11-|-------------11-----|
|D-------------------|--------------------|-------------------|--------------------|
|A-------------------|--------------------|-------------------|--------------------|
|E-------------------|--------------------|-------------------|--------------------|



  Verse


E-----------------------------|-------------------------------|---------------------------|------------------------------|
B-----------------------------|-------------------------------|---------------------------|------------------------------|
G---8--8--6-------------------|--8-8--6-------------6---------|--8---8---6----------------|--8-8----6--------------6-----|
D--------------9---9--9--7/8--|----------9---9----8------8----|----------------9--9--9-8--|-------------9---9---8-----8--|
A-----------------------------|-------------------------------|---------------------------|------------------------------|
E-----------------------------|-------------------------------|---------------------------|------------------------------|






  Chorus


|E-------------------|--------------------|-------------------|--------------------|
|B-------------------|--------------------|-------------------|--------------------|
|G---9--9-(9)/11-----|--9----9b(11)-------|---9--9-(9)/11-----|--9----9b(11)-------|
|D---------------11--|--------------11----|---------------11--|--------------11----|
|A-------------------|--------------------|-------------------|--------------------|
|E-------------------|--------------------|-------------------|--------------------|
|    In the someday  |                    |                   |                    |
|                    |                    |                   |                    |
|                    |                    |                   |                    |
|  Backing Vocals    |                    |                   |                    |
|E-------------------|--------------------|-------------------|--------------------|
|B--10-10-(10)/11----|--10--10b(11)-------|--10-10-(10)/11----|--10--10b(11)-------|
|G----------------11-|-------------11-----|----------------11-|-------------11-----|
|D-------------------|--------------------|-------------------|--------------------|
|A-------------------|--------------------|-------------------|--------------------|
|E-------------------|--------------------|-------------------|--------------------|





|E-------------------|--------------------|-------------------|--------------------|
|B-------------------|--------------------|-------------------|--------------------|
|G---9--9-(9)/11-----|--9----9b(11)-------|---9--9-(9)/11-----|--9----9b(11)-------|
|D---------------11--|--------------11----|---------------11--|--------------11----|
|A-------------------|--------------------|-------------------|--------------------|
|E-------------------|--------------------|-------------------|--------------------|
|    In the someday  |                    |                   |                    |    
|                    |                    |                   |                    |
|                    |                    |                   |                    |
|  Backing Vocals    |                    |                   |                    |
|E-------------------|--------------------|-------------------|--------------------|
|B--10-10-(10)/11----|--10--10b(11)-------|--10-10-(10)/11----|--10--10b(11)-------|
|G----------------11-|-------------11-----|----------------11-|-------------11-----|
|D-------------------|--------------------|-------------------|--------------------|
|A-------------------|--------------------|-------------------|--------------------|
|E-------------------|--------------------|-------------------|--------------------|





     Bass




  Verse


E-------------------------|------------------------|------------------------|------------------------|
B-------------------------|------------------------|------------------------|------------------------|
F#---5---5----------------|---5---5----------------|---5---5----------------|---5---5----------------|
C#-----------2--2--1--2---|-----------2--2--1--0---|-----------2--2--1--2---|-----------2--2--1--0---|



E-------------------------|------------------------|------------------------|------------------------|
B-------------------------|------------------------|------------------------|------------------------|
F#---5---5----------------|---5---5----------------|---5---5----------------|---5---5----------------|
C#-----------2--2--1--0---|-----------2--2--1--0---|-----------2--2--1--0---|-----------2--2--1--2---|




E-------------------------|------------------------|------------------------|------------------------|
B-------------------------|------------------------|------------------------|------------------------|
F#---5---5----------------|---5---5----------------|---5---5----------------|---5---5----------------|
C#-----------2--2--1--0---|-----------2--2--1--2---|-----------2--2--1--2---|-----------2--2--1--0---|


  Chorus



E-------------------------|------------------------|------------------------|
B-------------------------|------------------------|------------------------|
F#---0---0---3--3--3--3---|---0---0---3--3--3--3---|---0---0---3--3--3--3---|
C#------------------------|------------------------|------------------------|




E-------------------------|------------------------|------------------------|
B-------------------------|------------------------|------------------------|
F#---0---0---3--3--3--3---|---0---0---3--3--3--3---|---0---0---3--3--3--3---|
C#------------------------|------------------------|------------------------|




E-------------------------|------------------------|------------------------|
B-------------------------|------------------------|------------------------|
F#---0---0---3--3--3--3---|---0---0---3--3--3--3---|---0---0---3--3--3--3---|
C#------------------------|------------------------|------------------------|



  Verse


E-------------------------|------------------------|------------------------|------------------------|
B-------------------------|------------------------|------------------------|------------------------|
F#---5---5----------------|---5---5----------------|---5---5----------------|---5---5----------------|
C#-----------2--2--1--2---|-----------2--2--1--0---|-----------2--2--1--0---|-----------2--2--1--0---|




|E-------------------------|------------------------|------------------------|------------------------|
|B-------------------------|------------------------|------------------------|------------------------|
|F#---5---5----------------|---5---5----------------|---5---5----------------|---5---5----------------|
|C#-----------2--2--1--0---|-----------2--2--1--2---|-----------2--2--1--0---|-----------2--2--1--0---|




  Chorus


E-------------------------|------------------------|------------------------|
B-------------------------|------------------------|------------------------|
F#---0---0---3--3--3--3---|---0---0---3--3--3--3---|---0---0---3--3--3--3---|
C#------------------------|------------------------|------------------------|




E-------------------------|------------------------|------------------------|
B-------------------------|------------------------|------------------------|
F#---0---0---3--3--3--3---|---0---0---3--3--3--3---|---0---0---3--3--3--3---|
C#------------------------|------------------------|------------------------|




E-------------------------|------------------------|------------------------|
B-------------------------|------------------------|------------------------|
F#---0---0---3--3--3--3---|---0---0---3--3--3--3---|---0---0---3--3--3--3---|
C#------------------------|------------------------|------------------------|




  Guitar Solo


E--------------------------|-------------------------|-------------------------|-------------------------|
B--------------------------|-------------------------|-------------------------|-------------------------|
F#---5---5-----------------|---5---5-----------------|---5---5-----------------|---5---5-----------------|
C#----------0/2--2--1--0---|----------0/2--2--1--0---|----------0/2--2--1--0---|----------0/2--2--1--0---|




E--------------------------|-------------------------|-------------------------|-------------------------|
B--------------------------|-------------------------|-------------------------|-------------------------|
F#---5---5-----------------|---5---5-----------------|---5---5-----------------|---5---5-----------------|
C#----------0/2--2--1--0---|----------0/2--2--1--0---|----------0/2--2--1--0---|----------0/2--2--1--0---|






  Chorus


E-------------------------|------------------------|------------------------|
B-------------------------|------------------------|------------------------|
F#---0---0---3--3--3--3---|---0---0---3--3--3--3---|---0---0---3--3--3--3---|
C#------------------------|------------------------|------------------------|




E-------------------------|------------------------|------------------------|
B-------------------------|------------------------|------------------------|
F#---0---0---3--3--3--3---|---0---0---3--3--3--3---|---0---0---3--3--3--3---|
C#------------------------|------------------------|------------------------|




E-------------------------|------------------------|------------------------|
B-------------------------|------------------------|------------------------|
F#---0---0---3--3--3--3---|---0---0---3--3--3--3---|---0---0---3--3--3--3---|
C#------------------------|------------------------|------------------------|






  Verse



E-------------------------|------------------------|------------------------|------------------------|
B-------------------------|------------------------|------------------------|------------------------|
F#---5---5----------------|---5---5----------------|---5---5----------------|---5---5----------------|
C#-----------2--2--1--0---|-----------2--2--1--0---|-----------2--2--1--0---|-----------2--2--1--0---|




E-------------------------|------------------------|------------------------|------------------------|
B-------------------------|------------------------|------------------------|------------------------|
F#---5---5----------------|---5---5----------------|---5---5----------------|---5---5----------------|
C#-----------2--2--1--0---|-----------2--2--1--2---|-----------2--2--1--2---|-----------2--2--1--0---|





  Chorus



E---------------------------|--------------------------|--------------------------|
B---------------------------|--------------------------|--------------------------|
F#---0---0---x-x--3--3--3---|---0---0---x-x--3--3--3---|---0---0---x-x--3--3--3---|
C#--------------------------|--------------------------|--------------------------|




E---------------------------|--------------------------|--------------------------|
B---------------------------|--------------------------|--------------------------|
F#---0---0---x-x--3--3--3---|---0---0---x-x--3--3--3---|---0---0---x-x--3--3--3---|
C#--------------------------|--------------------------|--------------------------|




E---------------------------|--------------------------|--------------------------|
B---------------------------|--------------------------|--------------------------|
F#---0---0---x-x--3--3--3---|---0---0---x-x--3--3--3---|---0---0---x-x--3--3--3---|
C#--------------------------|--------------------------|--------------------------|




  Outro



E-----------------------------|
B-----------------------------|
F#---5---5--x-x---------------|
C#---------------2--2--1--0---|
Comments