Nirvana - I Hate Myself And Want To Die Chords & Tabs

 

I Hate Myself And Want To Die Chords & Tabs

Nirvana Chords & Tabs

Version: 1 Type: Tab 0 ratings
1 star 2 stars 3 stars 4 stars 5 stars
comments

I Hate Myself And Want To Die Tab

   
Artist: Nirvana
Song: I Hate Myself And Want to Die
Album: The Beavis and Butthead Soundtrack

(Drop D)

Intro/Verse:

e--------------------------------------|
B--------------------------------------|
G--5-5-----------5-5-------------------|
D--5-5--2-2-1-2--5-5----2-2-1-0--------|
A--3-3--2-2-1-2--3-3----2-2-1-0--------|
D-------2-2-1-2---------2-2-1-0--------|

Chorus:
[ Tab from: http://www.guitartabs.cc/tabs/n/nirvana/i_hate_myself_and_want_to_die_tab.html ]
e--------------------------|
B--------------------------|
G--------------------------|
D--5-5----8-8-8-8----------|
A--5-5----8-8-8-8----------|
D--5-5----8-8-8-8----------|

Solo:

e--------------------|---------------------|
B--------------------|---------------------|
G-----------0--------|---------------------|
D--------0-----4-3-2-|-3-2-0-2-------------|
A----2-3-------------|----------1-0--------|
D-/5-----------------|---------------5-3-2-|
Comments