Nirvana - Here She Comes Now Chords & Tabs

 

Here She Comes Now Chords & Tabs

Nirvana Chords & Tabs

Version: 6 Type: Tab 0 ratings
1 star 2 stars 3 stars 4 stars 5 stars
comments

Here She Comes Now Tab

   
-------------------------------------------------------------------------------
			     Here She Comes Now (solo) - Nirvana
-------------------------------------------------------------------------------
Tabbed by:matt

Tuning:normal

e|-solo----------------------------------------------------------------------|
B|---------------------------------------------------------------------------|
G|---------------------------------------------------------5-2----------------|
D|-5-5--------3-5-3-5b-5b-3-5b-3--5b--3--5b-3-5b---------5~---5-3------------|
A|-5-5-----2-5-----------5-----------------------5-3-----5~------5-3---------|
E|-3-3-3-5-------------------------------------------5-3-3~------------------|
[ Tab from: http://www.guitartabs.cc/tabs/n/nirvana/here_she_comes_now_tab_ver_6.html ]
e|---------------------------------------------------------------------------|
B|---------------------------------------------------------------------------|
G|----5-7b------------------------12b-12b-10-12b-12b-10--10-12b-10-12b-12b-10|
D|-5-7----7-5----5-7-7-5--5-7b-55-0--------------------12----0---------------|
A|------------7-5--------7------5~-------------------------------------------|
E|------------------------------3~-------------------------------------------|

e|---------------------------------------------------------------------------|
B|---------------------------------------------------------------------------|
G|-----------5b-3------------------------------------------------------------|
D|-7-7---5-3--------5-3------------------------------------------------------|
A|-----5---------------5-323-5---5-------------------------------------------|
E|-----------------------------5-3-------------------------------------------|

-Was difficult to tab ,hope its close enough.

| /  slide up
| \  slide down
| h  hammer-on
| p  pull-off
| ~  vibrato
| +  harmonic
| x  Mute note
==========================
Comments