Nirvana - Here She Comes Now Chords & Tabs

 

Here She Comes Now Chords & Tabs

Nirvana Chords & Tabs

Version: 5 Type: Tab 0 ratings
1 star 2 stars 3 stars 4 stars 5 stars
comments

Here She Comes Now Tab

   
 Song:Here she comes now
 Artist: Nirvana 
  
 For the parts where it doesnt tell you how many times to play it 
 just play what's there once. It sounds right to me when i play it 
and I hope the same goes for you. have fun

         D                    D(7th fret)             D(5th fret)
e|------2----2-----------|-------2---------------|-----2-----------------|
B|----3----3----3--------|-----3-----------------|---3-------------------|
G|-2-----2----2----------|--2-----2--------------|-2-----2---------------|
D|-----------------------|-----------------------|-----------------------|
A|-----------------------|-----------------------|-----------------------|
E|-----------------------|-----------------------|-----------------------|
                         play this 4 times

            D                       D                         D
e|--------2-----2--------|---------2-----2-------|---------2-----2-------|
B|------3-----3----------|-------3-----3---------|-------3-----3---------|
G|-2--------2------------|-22--------2-----------|-22--------2-----------|
D|-----------------------|-----------------------|-----------------------|
A|-----------------------|-----------------------|-----------------------|
E|-----------------------|-----------------------|-----------------------|


           D                       D                        D    
e|---------2-----2-------|---2---2---2---2-------|--------2-----2--------|
B|-------3-----3---------|-----------------------|------3-----3----------|
G|-22--------2-----2-----|-2---2---2---2---------|-2--------2------------|
D|-----------------------|-----------------------|-----------------------|
A|-----------------------|-----------------------|-----------------------|
E|-----------------------|-----------------------|-----------------------|
                  play part with only 2's quite fast

           D                         D
e|--------2-----2--------|--------2-----2--------|
B|------3-----3----------|------3-----3----------|
G|-2--------2------------|-2--------2------------|
D|-----------------------|-----------------------|
A|-----------------------|-----------------------|
E|-----------------------|-----------------------|





now you strum   D  G  D  G     F
 


[ Tab from: http://www.guitartabs.cc/tabs/n/nirvana/here_she_comes_now_tab_ver_5.html ]
 
     D                    D(7th fret)                D(5th fret)
e|------2----2-----------|-------2---------------|-----2-----------------|
B|----3----3-------------|-----3-----------------|---3-------------------|
G|-2-----2---------------|--2-----2--------------|-2-----2---------------|
D|-----------------------|-----------------------|-----------------------|
A|-----------------------|-----------------------|-----------------------|
E|-----------------------|-----------------------|-----------------------| 
               play this part 2 times

           D                       D                         D  
e|--------2-----2--------|--------2-----2--------|--------2-----2--------|
B|------3-----3----------|------3-----3----------|------3-----3----------|
G|-2--------2------------|-2--------2------------|-2--------2------------|
D|-----------------------|-----------------------|-----------------------|
A|-----------------------|-----------------------|-----------------------|
E|-----------------------|-----------------------|-----------------------|

           D                       D                       D
e|--------2-----2--------|--------2-----2--------|--------2-----2--------|
B|------3-----3----------|------3-----3----------|------3-----3----------|
G|22--------2------------|-2--------2------------|-2--------2------------|
D|-----------------------|-----------------------|-----------------------|
A|-----------------------|-----------------------|-----------------------|
E|-----------------------|-----------------------|-----------------------|

           D                        D    
e|--------2-----2--------|-----2-----------------|
B|------3-----3----------|---3---3---------------|
G|-2--------2------------|-2---------------------|
D|-----------------------|-----------------------|
A|-----------------------|-----------------------|
E|-----------------------|-----------------------|




 D  G  D  G     F




         D                    D (7th fret)           D (5th fret)
e|------2---------2------|-------2---------------|-----2-----------------|
B|--------------------3--|-----3-----------------|---3-------------------|
G|-2-2----2-2-2-2---2----|--2-----2--------------|-2-----2---------------|
D|-----------------------|-----------------------|-----------------------|
A|-----------------------|-----------------------|-----------------------|
E|-----------------------|-----------------------|-----------------------|
           play this 4 times

          D                        D                       D
e|---2-----2-------------|-----2------2----------|---2--2--2--2----------|
B|-----------------------|-----------------------|-----------------------|
G|22--2222---------------|-22----2222-----22-----|-2--2--2--2------------|
D|-----------------------|-----------------------|-----------------------|
A|-----------------------|-----------------------|-----------------------|
E|-----------------------|-----------------------|-----------------------|
                play this 2 times

im sorry I dont't have the solo other wise the rest of the song is pretty
much repetition of what i've got here just more intensified
please give me a good rate. I like pie!
Comments