Nirvana - Heartbreaker Chords & Tabs

 

Heartbreaker Chords & Tabs

Nirvana Chords & Tabs

Version: 2 Type: Tab 0 ratings
1 star 2 stars 3 stars 4 stars 5 stars
comments

Heartbreaker Tab

Heartbreaker (originally Led Zeppelin)
Intro riff 1
e|----------------------------------------|
B|----------------------------------------|
G|----------------------------------------|
D|-------0-1-2-------------------0-1-2----|
A|-0-3~~--------------0-0-0-3~~~----------|
E|-------------3------------------------3-|
[ Tab from: http://www.guitartabs.cc/tabs/n/nirvana/heartbreaker_tab_ver_2.html ]
Intro riff 2
e|----------------------------------------|
B|----------------------------------------|
G|-------0-1-2-------------------0-1-2----|
D|-0-3~~~-------------0-0-0-3~~~----------|
A|-------------3------------------------3-|
E|----------------------------------------|

Verse
e|---------------|
B|---------------|
G|-2-x-x-x-5-----|
D|-2-x-x-x-5-----|
A|-0-x-x-x-3-----|
E|---------------|
Comments