Nirvana - Heart Shaped Box Chords & Tabs

 

Heart Shaped Box Chords & Tabs

Nirvana Chords & Tabs

Version: 2 Type: Tab 1 rating
1 star 2 stars 3 stars 4 stars 5 stars
comments

Heart Shaped Box Tab

Note:  This is not finished, it's just what I remember from "From 
the Muddy Banks of the Whishkah" Album Song Book.  And you really
have to listen to the song to get the real rhythm and all that and
how many times you play each set
There's an intro, but I forgot it.  You'll just have to get the
book (try Guitar Center, they have an awesome selection of books
from different groups).

------------------------------------------------------------------
------------------------------------2-----------------------------
-----2---------------------0--------2----------------x-x------0---
---2---2------3--------0----------2---2------3---/4~--------4-0---
-0----------3---3----0---0---0--0----------3---3------0---3-3-----
----------3--------0---------------------3------------------------
[ Tab from: http://www.guitartabs.cc/tabs/n/nirvana/heart_shaped_box_tab_ver_2.html ]
------------------------------------------------------------------
-----2--------------------------------2---------------------------
-----2----------------x-x------0------2----------------x-x------0-
---2---2------3---/4~--------4-0----2---2------3---/4~--------4-0-
-0----------3---3------0---3-3----0----------3---3------0---3-3---
----------3--------------------------------3----------------------

------------------------------------------------------------------
------------------------------------------------------------------
-2-2-4------4----------------4--2-2-4------4----------------4-----
-2-2----3-3------/4--4-4--------2-2----3-3------/4--4-4-----------
-0-0----3-3----0---------3-3----0-0----3-3----0---------3-3-------
--------3-3----0-----------------------3-3----0-------------------
Comments