Nirvana - Hairspray Queen Chords & Tabs

 

Hairspray Queen Chords & Tabs

Nirvana Chords & Tabs

Version: 2 Type: Tab 0 ratings
1 star 2 stars 3 stars 4 stars 5 stars
comments

Hairspray Queen Tab

mad song with phsyco singing
guitarist: good ole Kurdt Kobain

HAIRSPRAY QUEEN

main riff (intro)

e|--------------|
b|---9-x-9------|
g|---7-x-7---x--|just muck around with this for a while
d|---8-x-8--8---|its kinda picked, strummed and muted in places
a|-7-7-x-7-7----|
E|--------------|

riff 2 (intro bit 2)
[ Tab from: http://www.guitartabs.cc/tabs/n/nirvana/hairspray_queen_tab_ver_2.html ]
e|-4--6--7--8--9---/13---13-/7--7-/4--4-/6-|
b|--4--6--7--8--9-9/--13--13/-7--7/-4--4/6-|
g|-----------------------------------------|play twice i think
d|-----------------------------------------|
a|-----------------------------------------|
E|-----------------------------------------|

chorus

e|-----------|
b|-----------|
g|-----------|
d|-4~--------|
a|-4~--------|
E|-2~--------|

by Alex Dewar
Comments