Nirvana - Floyd The Barber Chords & Tabs

 

Floyd The Barber Chords & Tabs

Nirvana Chords & Tabs

Version: 9 Type: Tab 0 ratings
1 star 2 stars 3 stars 4 stars 5 stars
comments

Floyd The Barber Tab

   
-----------------------------------------------------------------------------
			    FLOYD THE BARBER - Nirvana
-----------------------------------------------------------------------------
Tabbed by: skatersic666
Email: totalrock2003@yahoo.com

Tuning: 1/2 Step Down (Eb Ab Db Gb Bb Eb)

When you have to slide the F5 chord in the intro and verses srum while
sliding the chord shape up the fretboard, slide it up to a high note.


Intro:
   F5   N.C     F5   N.C     F5   N.C    F5     
e|--------------------------------------------|
B|--------------------------------------------|
G|--------------------------------------------|
D|-3-3--x-x-x---3-3--x-x-x---3-3--x-x-x---3-3-| Repeat 2 times
A|-3-3--x-x-x---3-3--x-x-x---3-3--x-x-x---3-3-|
E|-1-1--x-x-x---1-1--x-x-x---1-1--x-x-x---1-1/|


Verse One:
   F5   N.C                              F5
e|------------|                       e|------------|
B|------------|                       B|------------|
G|------------|                       G|------------|
D|-3-3--x-x-x-|  7 times then play:   D|-3-3/-------| 
A|-3-3--x-x-x-|                       A|-3-3/-------|
E|-1-1--x-x-x-|                       E|-1-1/-------|


Chorus One:
   Db5    A5    C5     Ab5
e|-------------------------|
B|-------------------------|
G|-6-6-0--------5-5-0------|  
D|-6-6-0--7-7---5-5-0--6---| Repeat 4 times
A|-4-4-0--7-7---3-3-0--6---|
E|--------5-5----------4---|


Pre-Verse One:
   F5   N.C     F5   N.C     F5   N.C    F5     
e|--------------------------------------------|
B|--------------------------------------------|
G|--------------------------------------------|
D|-3-3--x-x-x---3-3--x-x-x---3-3--x-x-x---3-3-| Just play once
A|-3-3--x-x-x---3-3--x-x-x---3-3--x-x-x---3-3-|
E|-1-1--x-x-x---1-1--x-x-x---1-1--x-x-x---1-1/|


Verse Two:
   F5   N.C                              F5
e|------------|                       e|------------|
B|------------|                       B|------------|
G|------------|                       G|------------|
D|-3-3--x-x-x-|  7 times then play:   D|-3-3/-------| 
A|-3-3--x-x-x-|                       A|-3-3/-------|
E|-1-1--x-x-x-|                       E|-1-1/-------|


Chorus Two:
   Db5    A5    C5     Ab5
e|-------------------------|
B|-------------------------|
G|-6-6-0--------5-5-0------|  
D|-6-6-0--7-7---5-5-0--6---| Repeat 4 times
A|-4-4-0--7-7---3-3-0--6---|
E|--------5-5----------4---|

[ Tab from: http://www.guitartabs.cc/tabs/n/nirvana/floyd_the_barber_tab_ver_9.html ]
Guitar Solo:
  N.C
e|---------------------------|
B|---------------------------|
G|---------------------------|
D|---------------------------| repeat 3 times then play:
A|----------0-1-3-3-1-0-1-0--|
E|-1-1-0-1-------------------|
||
e|---------------------------------|
B|---------------------------------|
G|---------------------------------|
D|---------------------------------| 
A|----------0-1-3-3-3-4-4-5-5-7--7-|
E|-1-1-0-1-------------------------|


Pre-Verse Two:
   F5   N.C     F5   N.C     F5   N.C    F5     
e|--------------------------------------------|
B|--------------------------------------------|
G|--------------------------------------------|
D|-3-3--x-x-x---3-3--x-x-x---3-3--x-x-x---3-3-| Just play once
A|-3-3--x-x-x---3-3--x-x-x---3-3--x-x-x---3-3-|
E|-1-1--x-x-x---1-1--x-x-x---1-1--x-x-x---1-1/|


Verse Three:
   F5   N.C                              F5
e|------------|                       e|------------|
B|------------|                       B|------------|
G|------------|                       G|------------|
D|-3-3--x-x-x-|  7 times then play:   D|-3-3/-------| 
A|-3-3--x-x-x-|                       A|-3-3/-------|
E|-1-1--x-x-x-|                       E|-1-1/-------|


Chorus Three:
   Db5    A5    C5     Ab5
e|-------------------------|
B|-------------------------|
G|-6-6-0--------5-5-0------|  
D|-6-6-0--7-7---5-5-0--6---| Repeat 4 times.
A|-4-4-0--7-7---3-3-0--6---|
E|--------5-5----------4---|


Outro:
   F5   N.C                                   
e|------------|
B|------------|
G|------------|
D|-3-3--x-x-x-| Just play this the once.
A|-3-3--x-x-x-|
E|-1-1--x-x-x-|





Bell on door clanks come on in
Floyd observes my hairy chin
Sit down chair don't be afraid
Steamed hot towel on my Face

I was shaved
I was shaved 
I was shaved

Barney ties me to the chair 
I can't see I'm really scared
Floyd breathes hard I hear a zip
Pee-pee pressed against my lips

I was Shamed 
I was Shamed
I was shamed

I sense others in the room 
Opey, Aunt Bea, I presume
They take turns and Cut me up
I die smothered in Andy's butt


I was shaved
I was shaved
I was shaved

-----------------------------------------------------------------------------
			         KEY
-----------------------------------------------------------------------------
| /  slide up
| \  slide down
| h  hammer-on
| p  pull-off
| ~  vibrato
| +  harmonic
| x  Mute note
=============================================================================
correcions, requests and comments to totalrock2003@yahoo.com
Comments