Nirvana - Floyd The Barber Chords & Tabs

 

Floyd The Barber Chords & Tabs

Nirvana Chords & Tabs

Version: 6 Type: Tab 0 ratings
1 star 2 stars 3 stars 4 stars 5 stars
comments

Floyd The Barber Tab

   
-------------------------------------------------------------------------------
			    Floyd the Barber - Nirvana
-------------------------------------------------------------------------------
Tabbed by: Andrew Hilliard
Email: info@4drspeed.com

Tuning: Drop D 

e|---------------------------------------------------------------------------|
B|---------------------------------------------------------------------------|
G|---------------------------------------------------------------------------|
D|--2--2---------------------------------------------------------------------|
A|--2--2-----0--0--0---------------------------------------------------------|
D|--2--2-----0--0--0---------------------------------------------------------|
                   [p.m.]             
e|---------------------------------------------------------------------------|
B|---------------------------------------------------------------------------|
G|---5--5--x----2--2--x---4--------------------------------------------------|
D|---5--5--x----2--2--x---4----5---5---5---5---------------------------------|
A|---3--3--x----0--0--x---2----5---5---5---5---------------------------------|
D|-------------------------------5---5---5---5-------------------------------|
[ Tab from: http://www.guitartabs.cc/tabs/n/nirvana/floyd_the_barber_tab_ver_6.html ]
e|---------------------------------------------------------------------------|
B|---------------------------------------------------------------------------|
G|---------------------------------------------------------------------------|
D|---------------------------------------------------------------------------|
A|-----------1-2---2--0--2--3--2---------------------------------------------|
D|---~2---0------------------------------------------------------------------|
     Solo (Not quite sure about the solo, but close enough)
e|---------------------------------------------------------------------------|
B|---------------------------------------------------------------------------|
G|---------------------------------------------------------------------------|
D|---------------------------------------------------------------------------|
A|-----------1-2--3-3--5-5--7-7--9-9-----------------------------------------|
E|---~2---0------------------------------------------------------------------|
     Solo

| /  slide up
| \  slide down
| h  hammer-on
| p  pull-off
| ~  vibrato
| +  harmonic
| x  Mute note

===============================================================================
Here are the actual lyrics, these are straight from Kurt Cobain's Journals.

Bell on door clanks - come on in
Floyd observes my hairy chin
Sit down chair don't be afraid
Steamed hot towel on my face

I was shaved (3xs)

Barney ties me to the chair
I can't see I'm really scared
Floyd breathes hard I hear a zip
Pee Pee Pressed against my lips

I was shamed (3xs)

I sense others in the room
Opey Aunt Bee I presume
They take turns in cut me up
I died smothered in Andys Butt

I was shaved (3xs)
==============================================================================
Great song very easy just listen to it one time through and you'll have it down.
Comments