Nirvana - Floyd The Barber Chords & Tabs

 

Floyd The Barber Chords & Tabs

Nirvana Chords & Tabs

Version: 3 Type: Tab 0 ratings
1 star 2 stars 3 stars 4 stars 5 stars
comments

Floyd The Barber Tab

Floyd the barber
Nirvana
Tabbed by Mattia Locatelli 
mattia_locatelli@hotmail.com 

Intro/verse

eb---------------------------------
Bb---------------------------------
Gb---------------------------------
Db---3---------2-------------------
Ab---3---------2-------------------
Eb---1---------0-------------------


Chorus

Eb ---------------------------------
Bb ---------------------------------
Gb -----5------------4--------------
Db -----5-----6------4-----5--------
Ab -----3-----6------2-----5--------
Eb -----------4------------3--------


Solo  
[ Tab from: http://www.guitartabs.cc/tabs/n/nirvana/floyd_the_barber_tab_ver_3.html ]
Eb ------------------------------------------------
Bb ------------------------------------------------
Gb ------------------------------------------------      
Db ------------------------------------------------    (x3)
Ab --------------------0--1--3 ~~--1--0--1--3------
Eb --1--1--0--1--3--------------------- -----------

Eb -------------------------------------------------
Bb -------------------------------------------------
Gb -------------------------------------------------    
Db -------------------------------------------------  
Ab --------------------0--1--2/3-4/5-6/7----8-------
Eb --1--1--0--1--3-------------------------0--------

Comments