Nirvana - Floyd The Barber Chords & Tabs

 

Floyd The Barber Chords & Tabs

Nirvana Chords & Tabs

Version: 2 Type: Tab 0 ratings
1 star 2 stars 3 stars 4 stars 5 stars
comments

Floyd The Barber Tab

here is the right way to play floyd 
the batber. i cant believe people actually tabbed this song wrong.
it is one of nirvanas easiest songs ever!
by ryno

regular tuning
intro/every verse/////chorus          pause, repeat, listen to record
e------------------------------------/
b------------------------------------/
g---------------------5-5-----4-4----/
d-3-3-2-2-2-----------5-5-6-6-4-4-5-5/
a-3-3-2-2-2-----------3-3-6-6-2-2-5-5/
e-1-1-0-0-0---------------4-4-----3-3/
      pm pm

[ Tab from: http://www.guitartabs.cc/tabs/n/nirvana/floyd_the_barber_tab_ver_2.html ]
figure XX                      ^^^=tapping
solo
d-3-3-3------~~~~-------------------------^^^-----~~~~~~
a-3-3-3-0-1-3-3--3-1-0-1-3~~~~~---------1-1-3--3-1------0-1-3
e-1-1-1-------------------1----1-0-1-3-0

d---------------/
a-------------0-1/  repeat figure XX as many times as on record or 
e-1----1-0-1-3--/    as amny times desired

to finish          ^^^^^^^^^^^^^= a slow tapping (listen 2 record)   
a-------------^^^--3-5-5-6-6-7-8////repeat intro verse
e-1---1-0-1-3-3-5


there, if you know anything about guitar u will know that this is
right

ryno
Comments