Nirvana - Floyd The Barber Chords & Tabs

 

Floyd The Barber Chords & Tabs

Nirvana Chords & Tabs

Version: 1 Type: Tab 0 ratings
1 star 2 stars 3 stars 4 stars 5 stars
comments

Floyd The Barber Tab

   FLOYD THE BARBER 
                        BY NIRVANA
VERSE:

E----------------------------------------
b----------------------------------------
G----------------------------------------
D--3---3---x-x-x-------------------------
A--3---3---x-x-x-------------------------
E--1---1---x-x-x-------------------------


Chorus:

E--------------------------------------
B--------------------------------------
G---55------44-----------------------------
D---55--66--44--55-----------------------------
A---33--66--22--55-----------------------------
E-------44------33------------------------


solo:
[ Tab from: http://www.guitartabs.cc/tabs/n/nirvana/floyd_the_barber_tab.html ]
E----------------------------------------   *repeat 3 times* 
B-----------------------------------------  
G-----------------------------------------
D-----------------------------------------
A-------------0--1--3~--3--0-1---3--------
E-11-0-1--3-------------------------------




E-----------------------------------------
B-----------------------------1------------
G------------------------23-----------------
D-------------------2-3---------------------
A-------------0--1------------------
E-11-0-1--3-------------------------------

tabbed by joey. email me for nirvana reuests thanx bye jabjab122@aol.com
Comments