Nirvana - Floyd The Barber Chords & Tabs

 

Floyd The Barber Chords & Tabs

Nirvana Chords & Tabs

Version: 4 Type: Bass Tab 0 ratings
1 star 2 stars 3 stars 4 stars 5 stars
comments

Floyd The Barber Bass Tab

Verse:

G-------------------------
D-------------------------
A-------------------------
E-1-1--0-0-0--1-1--0-0-0--

Chorus:

G-------------------------
D-------------------------
A-3-3-------2-2-----------
E------4-4-------3-3------

Verse:

G-------------------------
D-------------------------
A-------------------------
E-1-1--0-0-0--1-1--0-0-0--

Chorus:

G-------------------------
D-------------------------
A-3-3-------2-2-----------
E------4-4-------3-3------
[ Tab from: http://www.guitartabs.cc/tabs/n/nirvana/floyd_the_barber_btab_ver_4.html ]
I'm not completly sure how the solo goes yet, but I just use this
(same as verse) and it has good timing.

Solo:

G-------------------------
D-------------------------
A-------------------------
E-1-1--0-0-0--1-1--0-0-0--

Chorus:

G-------------------------
D-------------------------
A-3-3-------2-2-----------
E------4-4-------3-3------

Outro:

G-------------------------
D-------------------------
A-------------------------
E-1-1--0-0-0--1-1--0-0-0--

That's it, it's simple.
Comments