Nirvana - Floyd The Barber Chords & Tabs

 

Floyd The Barber Chords & Tabs

Nirvana Chords & Tabs

Version: 3 Type: Bass Tab 0 ratings
1 star 2 stars 3 stars 4 stars 5 stars
comments

Floyd The Barber Bass Tab

Band:Nirvana
song:Floyed the Barber
tabbed: by Eric Hutchison

This is a really easy song and its 100% correct

verse
G:------------------------------------------------------------
D:------------------------------------------------------------
A:------------------------------------------------------------
E:-1-1--0-0-0-------------------------------------------------
[ Tab from: http://www.guitartabs.cc/tabs/n/nirvana/floyd_the_barber_btab_ver_3.html ]
chorus
G:------------------------------------------------------------
D:------------------------------------------------------------
A:-33----22---------------------------------------------------
E:----44----33------------------------------------------------

Bridge
G:------------------------------------------------------------
D:------------------------------------------------------------
A:-----------0-1-2-2-0-- 0-2----------------------------------
E:-1--1--1-2-----------4--------------------------------------
Comments