Nirvana - Even In His Youth Chords & Tabs

 

Even In His Youth Chords & Tabs

Nirvana Chords & Tabs

Version: 4 Type: Tab 0 ratings
1 star 2 stars 3 stars 4 stars 5 stars
comments

Even In His Youth Tab

   
Even in his youth
Kurt Cobain
Off the smells like teen spirit single


Intro and verse:
E|---------|
B|---------|
G|-5-------|
D|-5-5/666-|
A|-3-5/666-|
E|---3/444-|

Chorus
E|---------------------|
B|---------------------|
G|-101010-666-----8888-|
D|-101010-666-666-8888-|
A|-8-8-8--444-666-6666-|
E|------------444------|
[ Tab from: http://www.guitartabs.cc/tabs/n/nirvana/even_in_his_youth_tab_ver_4.html ]
end of chorus
after "hope i don't come back a slave"
E|----------------|
B|----------------|
G|----------------|
D|-88888888-------|
A|-88888888-1///--|
E|-66666666-------|
pm|---------------|

Solo
E|--------------------------| first time
B|--------------------------|
G|-5----------------3-65-30-|
D|-5-3-55-5^-5^-3-5---------|
A|-3------------------------|
E|--------------------------|

After
E|--------------------------|
B|--------------------------|
G|------------------3-65-30-|
D|---3-55-5^-5^-3-5---------|
A|-3------------------------|
E|--------------------------|

for end play riff about then instead of the sequence on the G string play
E|-------
B|-/8888-
G|-/8888-
D|-------|
A|-------|
E|-------|
Comments