Nirvana - Dumb Chords & Tabs

 

Dumb Chords & Tabs

Nirvana Chords & Tabs

Version: 5 Type: Bass Tab 0 ratings
1 star 2 stars 3 stars 4 stars 5 stars
comments

Dumb Bass Tab

Nirvana -> Dumb (In Utero)

Riff
G:-----------------------------------------------------------------------------|
D:-----------------------------------------------------------------------------|
A:-------3------333-5-------3------320---------3------333-5-------3------333-5-|
E:0-0-1/5-5-33-3-----0-0-1/5-5-33-3---3-0-0-1/5-5-33-3-----0-0-1/5-5-33-3------|
[ Tab from: http://www.guitartabs.cc/tabs/n/nirvana/dumb_btab_ver_5.html ]
Riff_2
G:------------------------------------------------------------------|
D:---------------------555555---------------------555555-5/9-999----|
A:--7-7---------5/7--57--------7-7---------5/7--57------------------|
E:00-0-333333-00----7--------00-0-333333-00----7--------------------|

Chorus
G:------------------------------------------------------|
D:------------------------------------------------------|
A:22----33----22----33----------------------------------|
E:--2-23--3-32--2-23--3-32------------------------------|

Luiz Manzano (Brasil)
Comments