Nirvana - Dumb Chords & Tabs

 

Dumb Chords & Tabs

Nirvana Chords & Tabs

Version: 2 Type: Bass Tab 1 rating
1 star 2 stars 3 stars 4 stars 5 stars
comments

Dumb Bass Tab

song title: dumb
artist: nirvana



|----------------------
|---------------------0
|------0-3-0------333--
|-0--0------3333-0-----

|------------------------
|------------------------
|------0-3-0------3-2-0--
|-0--0------3333-0------3

|----------------------
|---------------------0
|------0-3-0------333--
|-0--0------3333-0-----

|---------------------
|---------------------
|------0-3-0------3333
|-0--0------3333-0----

|----------------------
|-----2---2------------
|----------------------
|-0-0---0---0-3-3-3-333

|----------0-0-00-
|----2-020-------2
|-----------------
|0-0--------------

|----------------------
|-----2---2------------
|----------------------
|-0-0---0---0-3-3-3-333

|----------0-24-4
|----2-020-------
|----------------
|0-0-------------

|----------------------
|---------------------0
|------0-3-0------333--
|-0--0------3333-0-----
[ Tab from: http://www.guitartabs.cc/tabs/n/nirvana/dumb_btab_ver_2.html ]
|------------------------
|------------------------
|------0-3-0------3-2-0--
|-0--0------3333-0------3

|----------------------
|---------------------0
|------0-3-0------333--
|-0--0------3333-0-----

|---------------------
|---------------------
|------0-3-0------3333
|-0--0------3333-0----

|-----------------
|-----------------
|-222-0----33-----
|-------32---3-320

|-----------------
|-----------------
|-222-0----33-----
|-------32---3-320

|-----------------
|-----------------
|-222-0----33-----
|-------32---3-320

|--------------------
|--------------------
|222-0---3--(let ring)
|-----32-------------

repeat whole thing until ending

(ending)

|---------------------
|---------------------
|------0-3-0------3333
|-0--0------3333-0----

repeat until song is over


thats it its not that hard once you play through it a few times but 
listen to the song to get timing
Comments