Nirvana - Drain You Chords & Tabs

 

Drain You Chords & Tabs

Nirvana Chords & Tabs

Version: 5 Type: Tab 0 ratings
1 star 2 stars 3 stars 4 stars 5 stars
comments

Drain You Tab

   
Nirvana - Drain You (Nevermind)
Tabbed by Carlos Carvallo (Malditajaula_666M@hotmail.com)

/=slide
~~=vibrato
+=Tremelo Pick

Verse: A5 C#5 F#5 B5
d:------------------------: 
A:------------------------: 
F:-----8-----6------------: 
C:--9--8--6--6------------: 
G:--9--6--6--4------------: 
D:--7-----4---------------:

Chorus: E5 D5
d:-------------------------: 
A:-------------------------: 
F:-------------------------: 
C:--4--2-------------------: 
G:--4--2-------------------: 
D:--2--0-------------------: 
[ Tab from: http://www.guitartabs.cc/tabs/n/nirvana/drain_you_tab_ver_5.html ]
d:-------------------------: 
A:-------------------------: 
F:-----6-------------------: 
C:--2--6-------------------: 
G:--2--4-------------------: 
D:--0----------------------: 
 
Post-chorus: A5 G5 F#5
d:------------------------: 
A:------------------------: 
F:------------------------: 
C:--9--7--6---------------: 
G:--9--7--6---------------: 
D:--7--5--4---------------:

Solo:

feedback for a few bars then this:
   dist. on       dist. off
d:-------------------------:
A:-5--------------5--------:
F:-4--------------4--------:
C:-5--------------5--------:
G:---+---------------------:
D:-------------------------:

play that 4x, then play this:

d:---------------------------------------------------:
A:-9\8\7\6\5-----------------------------------------:
F:-8\7\6\5\4--------8/9~~-6~~-7-8~~-9-10~~-11-12~~~~~:
C:-9\8\7\6\5-----------------------------------------:
G:---------------------------------------------------:
D:---------------------------------------------------:
Comments