Nirvana - Drain You Chords & Tabs

 

Drain You Chords & Tabs

Nirvana Chords & Tabs

Version: 1 Type: Tab 5 ratings
1 star 2 stars 3 stars 4 stars 5 stars
comments

Drain You Tab

   
Nirvana - Drain You

     one baby to another...
e-----------------|-----------------|-----------------|-----------------|
B-4---4-----------|---------------0-|-4---4-4---------|-----------------|
G-4---4---8-8-8---|-5---5---6-6-6-0-|-4---4-4-8-8-8-0-|---------6-6-6---|
D-4---4---8-8-8-0-|-6---6---6-6-6-0-|-4---4-4-8-8-8-0-|-6---6-6-6-6-6-0-|
A-2---2---6-6-6-0-|-6---6-6-4-4-4---|-2---2-2-6-6-6-0-|-6---6-6-4-4-4-0-|
E-----------------|-4---4-4---------|-----------------|-4---4-4---------|

     i don't care what you think unless...
e-----------------|-----------------|-----------------|-----------------|
B-----------------|-------0---------|-----------------|-----------------|
G-4---4-4-8-8-8---|-------0-6-6-6-0-|-4---4-4-8-8-8---|---------6-6-6---|
D-4---4-4-8-8-8-0-|-6---6---6-6-6-0-|-4---4-4-8-8-8-0-|-6---6-6-6-6-6-0-|
A-2---2-2-6-6-6-0-|-6---6---4-4-4-0-|-2---2-2-6-6-6-0-|-6---6-6-4-4-4-0-|
E-----------------|-4---4-----------|-----------------|-4---4-4---------|

     chew your meat for you...
e-----------------|-----------------|-----------------|-----------------|
B-----------------|-----------------|-----------------|-----------------|
G-----------------|-----------------|-----------------|-----------------|
D-----------------|-6-6-6-6-6-6-6-0-|-----------------|-6-6-6-6-6-6-6-6-|
A-4---4---2---2-2-|-4-4-4-4-4-4-4-0-|-2-2-2-2-2-2-2-2-|-4-4-4-4-4-4-4-4-|
E-2---2-0-0---0-0-|-----------------|-0-0-0-0-0-0-0-0-|-----------------|

     I like you...
e-----------------|-----------------|-----------------| first time
B-----------------|-----------------|-----------------|
G-----------------|-----------------|-----------------|
D-4-------2-------|-----------------|-----------------|
A-2-------0-------|-6---------------|-----------------|
E-----------------|-4---------------|-------------16--|

     I like you...
e-----------------| second time
B-----------------|
G-----------------|
D-----------------|
A-6---------------|
E-4---------------|

Interlude
e-4---------------|-----------------|-----------------|-----------------|
B-4---------------|-----------------|-----------------|-----------------|
G-4---------------|-----------------|-----------------|-----------------|
D-6---------------|-----------------|-----------------|-----------------|
A-----6-6-6-6-6-6-|-6-6-6-6-6-6-6-6-|-6-6-6-6-6-6-6-6-|-6-6-6-6-6-6-6-6-|
E-----4-4-4-4-4-4-|-4-4-4-4-4-4-4-4-|-4-4-4-4-4-4-4-4-|-4-4-4-4-4-4-4-4-|
[ Tab from: http://www.guitartabs.cc/tabs/n/nirvana/drain_you_tab.html ]
e-----------------|-----------------|-7-----4-4-------|-----------------|
B-----------------|-----------------|-7---------------|-----------------|
G-----------------|-----------------|-x---------------|---------------7-|
D-----------------|-----------------|-6---------6-6-6-|---------------6-|
A-6-6-6-6-6-6-6-6-|-6-6-6-6-6-6-6-6-|-----------------|-6-6-6-6-6-6-6-6-|
E-4-4-4-4-4-4-4-4-|-4-4-4-4-4-4-4-4-|-----------------|-4-4-4-4-4-4-4-4-|

e-----------------|-----------------|-----------------|-----------------|
B-----------------|-----------------|-----------------|-----------------|
G-----------------|-----------------|-7---------------|-------------7---|
D-----------------|-----------------|-6-------6-------|---------6-6-6---|
A-6-6-6-6-6-6-6-6-|-6-6-6-6-6-6-6-6-|-6-------6-------|---------x-x-x---|
E-4-4-4-4-4-4-4-4-|-4-4-4-4-4-4-4-4-|-4-4-4-4---4---4-|---4-4-4-4-4-4-4-|

e-----------------|-----------------|-8---------------|-----------------|
B-----------------|-----------------|-x---------------|-----------------|
G-----------------|-----------------|-7---------------|-----------------|
D-----------------|-----------------|-6---------------|-----------------|
A-6-6-6-6-6-6-6-6-|-6-6-6-6-6-6-6-6-|---------6-6-6---|-----------------|
E-4-4-4-4-4-4-4-4-|-4-4-4-4-4-4-4-4-|---------------4-|-------4-4-4-4-4-|

e-
B-----------------|-----------------|-----------------|-----------------|
G-----------------|-----------------|-7---------------|-----------------|
D-----------------|-----------------|-6---------------|-----------------|
A-6-6-6-6-6-6-6-6-|-6-6-6-6-6-6-6-6-|-----------------|-----------------|
E-4-4-4-4-4-4-4-4-|-4-4-4-4-4-4-4-4-|--------4--4-4-4-|-4-4-4-4-4-4-4-0-|

e-----------------|-----------------|-----------------|-----------------|
B-----------------|-----------------|-----------------|-----------------|
G-5---------------|-----------------|-----------------|-----------------|
D-6---------------|-----------------|-----------------|-----6-6-6-6-6-6-|
A-6---6-6-6-6-6-6-|-6-6-6-6-6-6-6-6-|-6-6-6-6-6-6-6-6-|-6-6-6-6-6-6-6-6-|
E-4---4-4-4-4-4-4-|-4-4-4-4-4-4-4-4-|-4-4-4-4-4-4-4-4-|-4-4-4-4-4-4-4-4-|

e-----------------|---------0-0-0-0-|-0-0-0-0-0-0-0-0-|-0-0-------------|
B-----------------|-----0---0-0-0-0-|-0-0-0-0-0-0-0-0-|-0-0-------------|
G-----------------|-----x---x-x-x-x-|-x-x-x-x-x-x-x-x-|-x-x-------------|
D-6-6-6-6-6-6-6-6-|-6-6-6-6-6-6-6-6-|-6-6-6-6-6-6-6-6-|-6-6-6-6-6-6-6-6-|
A-6-6-6-6-6-6-6-6-|-6-6-6-6-6-6-6-6-|-6-6-6-6-6-6-6-6-|-6-6-6-6-6-6-6-6-|
E-4-4-4-4-4-4-4-4-|-4-4-4-4-4-4-4-4-|-4-4-4-4-4-4-4-4-|-4-4-4-4-4-4-4-4-|

     I like you...
e-----------------|-----------------|
B-----------------|-----------------|
G-----------------|-----------------|
D-4-------2-------|-----------------|
A-2-------0-------|-6---------------|
E-----------------|-4---------------|

This is extremely acurate, it was taken fron the Muddy Banks of the Wishkah
album tablature book. There are NO mistakes in it...honestly!
Comments