Nirvana - Do Re Mi Chords & Tabs

 

Do Re Mi Chords & Tabs

Nirvana Chords & Tabs

Version: 2 Type: Tab 0 ratings
1 star 2 stars 3 stars 4 stars 5 stars
comments

Do Re Mi Tab

   
DO RE MI

Tuning:  step down 

Intro/Verse

                    
E|---------------|----------------|----------------|----------------|
B|9----9-9-9-9---|----------------|------6---------|----------------|
G|9----9-9-9-9---|----------------|6---x-6-6-6-6---|------4---------|
D|9----9-9-9-9-0-|6---x-6-6-6-6-0-|6---x-6-6-6-6-0-|4---x-4-4-4-4-0-|
A|7----7-7-7-7-0-|6---x-6-6-6-6-0-|4---x-4-4-4-4-0-|4---x-4-4-4-4-0-|
E|-------------0-|4---x-4-4-4-4-0-|--------------0-|2---x-2-2-2-2-0-|

Pre-Chorus x 3

                     
E|---------------------------------|
B|---------------------------------|
G|4---x-4-4---x-4-4---x-4--2-2-6-2-|
D|4---x-4-4---x-4-4---x-4--2-2-6-2-|
A|2---x-2-2---x-2-2---x-2--0-0-4-0-|
E|---------------------------------|
[ Tab from: http://www.guitartabs.cc/tabs/n/nirvana/do_re_mi_tab_ver_2.html ]
                                                  
E|---------------------------------------------------|------------------|
B|--------------------------------9------------------|--3-3-3-3-3-3-3-3-|
G|--------------------------------9------------------|--2-2-2-2-2-2-2-2-|
D|4---x-4-4---x-4-4---x-4---4-4-4-9-or-2-------------|--0-0-0-0-0-0-0-0-|
A|4---x-4-4---x-4-4---x-4---4-4-4-7----2-------------|------------------|
E|2---x-2-2---x-2-2---x-2---2-2-2-0----0-------------|------------------|

Chorus

  (G#)               (E)
E|----------------|----------------|
B|----------------|9---x-9-9-9-9---|
G|----------------|9---x-9-9-9-9---|
D|6---x-6-6-6-6-0-|9---x-9-9-9-9---|
A|6---x-6-6-6-6-0-|7---x-7-7-7-7---|
E|4---x-4-4-4-4-0-|0-----0-0-0-0---|

Post Chorus

E|----------------|
B|----------------|
G|----------------|
D|-2-1------------|
A|-----4-2-0------|
E|-----------4-2-0|
Comments