Nirvana - Dive Chords & Tabs

 

Dive Chords & Tabs

Nirvana Chords & Tabs

Version: 5 Type: Tab 0 ratings
1 star 2 stars 3 stars 4 stars 5 stars
comments

Dive Tab

   
Dive
Kurt Cobain & Krist Novoselic

Bass|-|
Muted notes() 

Intro:
Clean                        Distortion 
  |-------------------------|
E|------------------------------
B|---------------------------99-
G|---------------------------99-
D|---------------------------99-
A|------------777------------77-
E|-2-02-02-00-----2-02-02-00----

E|----------------- x3
B|-------------999-
G|-------------999-
D|-4-04-04-22-/999-
A|-4-04-04-22-/777-
E|-2-02-02-00------

E|------------------
B|------------------
G|------------------
D|-4-04-04-22-------
A|-4-04-04-22-/17/3-
E|-2-02-02-00-------

Verse either(222222)
E|-----------xxxxxx-
B|-----------555555-
G|-----------444444-
D|------2--2-222222-
A|----4------222222-
E|-22--------000000-

or
 E(2222-2-222222)
 B(2222-2       )
 G(4444-4       )
E|-xxxx-x-xxxxxx-
B|-xxxx-x-555555-
G|-xxxx-x-444444-
D|-4444-4-222222-
A|-4444-4-222222-
E|-2222-2-000000-
[ Tab from: http://www.guitartabs.cc/tabs/n/nirvana/dive_tab_ver_5.html ]
Pre Chorus:                Hate!
E|-------------------------------------------
B|---------------------------------------999-
G|---------------------------------------999-
D|-9-9-7/11-11-05-55-02-2-2-2-4-04-04-22/999-
A|-9-9-7/11-11-05-55-02-2-2-2-4-04-04-22/777-
E|-7-7-5/9--9--03-33-00-0-0-0-2-02-02-00-----

Chorus:
  Dive!  Dive!  Dive! Dive in me
E|-------------------------------------------
B|---------------------------------------999-
G|---------------------------------------999-
D|-9-9-7/11-11-05-55-02-2-2-2-4-04-04-22/999-
A|-9-9-7/11-11-05-55-02-2-2-2-4-04-04-22/777-
E|-7-7-5/9--9--03-33-00-0-0-0-2-02-02-00-----

Then repeat 2nd half of intro

Solo:
               x4              x4
E|-------------|---------------|
B|-------------|---------------|
G|-------------|-4-24-24-22~~2-|
D|-6-46-46-44~~|---------------|
A|-------------|---------------|
E|-------------|---------------|

Outro:
             Dive in me
E|------------------------------------
B|------------9-9-9-------------9-9-9-
G|------------9-9-9-------------9-9-9-
D|-4-04-04-22/9-9-9--4-04-04-22/9-9-9-
A|-4-04-04-22/7-7-7--4-04-04-22/7-7-7-
E|-2-02-02-00--------2-02-02-00-------
Comments