Nirvana - D Chords & Tabs

 

D Chords & Tabs

Nirvana Chords & Tabs

Version: 1 Type: Bass Tab 0 ratings
1 star 2 stars 3 stars 4 stars 5 stars
comments

D Bass Tab

D7 - Nirvana

Here is a corrected bass tab of D7.
The bass does this sliding action instead of following the guitar exactly.

  slow intro
G|--------------|-------------|
D|--------------|-1/7\0-1/5\3-|
A|-1/7\0-1/5\3--|0-----1------|
E|0-----1-------|-------------|
[ Tab from: http://www.guitartabs.cc/tabs/n/nirvana/d_btab.html ]
  
   fast second half of song
G|-----------------------------|----------------------------|
D|-----------------------------|----------------------------|
A|-----------------------------|000000001-3-1-000000001-3-1-|
E|000000001-3-1-00000000-1-3-1-|----------------------------|

tabbed by Achilles (blue_sincere@hotmail.com)

Comments