Nirvana - D-7 Chords & Tabs

 

D-7 Chords & Tabs

Nirvana Chords & Tabs

Version: 3 Type: Bass Tab 0 ratings
1 star 2 stars 3 stars 4 stars 5 stars
comments

D-7 Bass Tab

   
NIRVANA
D-7
Tabbed by: Matthew Hayward

Light part:
(There is two ways of playing the light part)

Ver.1:
G:-----------------------|
D:-----2-----------3-----|
A:---2---2-0-----3---3-0-|
E:-0-----------1---------| Repeat...
[ Tab from: http://www.guitartabs.cc/tabs/n/nirvana/d_7_btab_ver_3.html ]
Ver2:
G:--------------------------|
D:--------------------------|
A:--------------------------|
E:-0-0-1/12-12-0-1-1-1/13-0-| Repeat...

Heavy Part:
G:-----------------------|
D:-----------------------|
A:-----------------------|
E:-0-0-0-0-0-1-1-3-3-3-3-|
It changes sometimes to this:
G:-----------------------|
D:-----------------------|
A:-----------------------|
E:-5-5-5-5-5-6-6-8-8-8-8-|

Listen out for a band callled 'Magmis' :-)
Comments