Nirvana - D-7 Chords & Tabs

 

D-7 Chords & Tabs

Nirvana Chords & Tabs

Version: 1 Type: Bass Tab 0 ratings
1 star 2 stars 3 stars 4 stars 5 stars
comments

D-7 Bass Tab

   
D7
by Nirvana


   Intro
|------------------------------------------
|---------2--------------------------------
|------2------------3--5--3----------------
|---0--------0--1--------------------------


[ Tab from: http://www.guitartabs.cc/tabs/n/nirvana/d_7_btab.html ]
   Verse/Chorus/everything else
|------------------------------------------
|------------------------------------------
|---------------------0-0-0-0-0-0-0-1-3----
|--0-0-0-0-0-0-0-1-3-----------------------
          (A)                (B)

Play Part A several times then move to Part 
B for a couple of bars.  ...then back to A.
Simple song...


Interpretation by Dave Miller ~ dwm3@po.cwru.edu
Comments