Nirvana - Come As You Are Chords & Tabs

 

Come As You Are Chords & Tabs

Nirvana Chords & Tabs

Version: 5 Type: Bass Tab 0 ratings
1 star 2 stars 3 stars 4 stars 5 stars
comments

Come As You Are Bass Tab

This is the Bass tab for Come as You Are.
It is 100% correct cause it is the way it is is written in the tab book.

Song: Come As You Are
Artist: Nirvana
Tabbed by: Eric Kim
Tuning: Tune Down 1 Whole Step


Verse
F-------------------------------------------------
C----------------7-----7--------------9-------9--- 
G----7--7--8--9-----9-----9--9--8--7----7--7------
D-------------------------------------------------
[ Tab from: http://www.guitartabs.cc/tabs/n/nirvana/come_as_you_are_btab_ver_5.html ]
Chorus
F--------------------------------------------------
C--------------------------------------------------
G--------------------------------------------------
D----2-----2--2--2--2--2--2--5--5--5--5--5--5--5--0

Bridege ("And I swear that i dont have a gun")
F--------------------------------------------------
C--------------------------------------------------
G----2-----2--2--2--2--2--4--5--5--5--5--5--5--3--0
D--------------------------------------------------

This is a pretty easy way to play and it the correct way. Enjoy.
Comments