Nirvana - Come As You Are Chords & Tabs

 

Come As You Are Chords & Tabs

Nirvana Chords & Tabs

Version: 1 Type: Bass Tab 4 ratings
1 star 2 stars 3 stars 4 stars 5 stars
comments

Come As You Are Bass Tab

Nirvana - Come As You Are
Nevermind

Tabbed by Robert Hull 
Member of the Bass Tab Archive Tabbing Army
http://www.basstabarchive.com/

Tune a WHOLE step down

~ - Let ring

This tab has been done a million times, but sadly never in the right key.  
Here's the proper version.
If you don't want to tune down, just miss the open string part out and play 
it all two frets lower.


	           Verse
F|-------------------------------------------|
C|------------7----7------------9-----------|
G|--7-7-8-9----9----9--9-8-7----7-7--7---|
D|-------------------------------------------|
[ Tab from: http://www.guitartabs.cc/tabs/n/nirvana/come_as_you_are_btab.html ]
	          Chorus 1
F|--------------------------------------------|
C|-------------------------------------------|
G|-------------------------------------------|
D|--2-2-2-2-2-2-2-2-5-5-5-5-5-5-5-5-0--|


	          Chorus 2
F|--------------------------------------------|
C|-------------------------------------------|
G|---2-2-2-2-2-2-2-4-5-5-5-5-5-5-5-3----|
D|-------------------------------------------|


	      Outro
F|----------------------------------|
C|----------------------------------|
G|--7-7-8-9~----------------------|
D|----------------------------------|

Play it as:
		Guitar Intro x 2 (no bass)
		Verse x 10
		Chorus 1 x 4
		Verse x 4
`		Chorus 1 x 4
		Chorus 2 x 4
		Verse x 10  (with guitar solo)
		Chorus 1 x 4
		Chorus 2 x 6
		Verse x 4
		Outro x 1

Free free to email with comments or requests.

Comments