Nirvana - Breed Chords & Tabs

 

Breed Chords & Tabs

Nirvana Chords & Tabs

Version: 5 Type: Tab 1 rating
1 star 2 stars 3 stars 4 stars 5 stars
comments

Breed Tab

Hey, I submited this song 'cos the others sngs dont feel
right, or.. they are wrong! My band band plays Nirvana songs only!
We cant play 'em all yet, but we have a good start and know some songs,
mayby 15.. And Breed is one of them so I'm gonna help you out here:

---------------I
---------------I
---------------I
-4-4-0-4-7-----I
-4-4-0-4-7--0--I
-2-2-0-2-5--0--I
On some other tabs it says
-4-4-4-4-7-----I
-4-4-4-4-7--0--I
-2-2-0-2-5--0--I Instead, but if you play
all the strings open, you will hear it allot better, and
besides.. Thats how Kurt used to play it live!



BREED
Standard tuning	
INTRO/POSTCHORUS
---------------I
---------------I
---------------I
-4-4-0-4-7-----I
-4-4-0-4-7--0--I
-2-2-0-2-5--0--I

VERSE
-------------------------I-------------------------I
/11-11-11-11-11-11-11-11-I-11-11-11-11-11-11-11-11-I
/11-11-11-11-11-11-11-11-I-11-11-11-11-11-11-11-11-I
/11-11-11-11-11-11-11-11-I-11-11-11-11-11-11-11-11-I
/9--9--9--9--9--9--9--9--I-9--9--9--9--9--9--9--9--I
-------------------------I-------------------------I

-------------------------I-----------------I
-11-11-11-11-11-11-11-11-I-11-11-11-----(0)I
-11-11-11-11-11-11-11-11-I-11-11-11-----(0)I
-11-11-11-11-11-11-11-11-I-11-11-11-10~~(0)I
-9--9--9--9--9--9--9--9--I-9--9--9---------I
-------------------------I-----------------I  x3

4TH TIME:
-------------------------I-------------------------I
/11-11-11-11-11-11-11-11-I-11-11-11-11-11-11-11-11-I
/11-11-11-11-11-11-11-11-I-11-11-11-11-11-11-11-11-I
/11-11-11-11-11-11-11-11-I-11-11-11-11-11-11-11-11-I
/9--9--9--9--9--9--9--9--I-9--9--9--9--9--9--9--9--I
-------------------------I-------------------------I
[ Tab from: http://www.guitartabs.cc/tabs/n/nirvana/breed_tab_ver_5.html ]
------------------------I-----------------I
-11-11-11-11-11-11-11---I-----------------I
-11-11-11-11-11-11-11-0-I-----------------I
-11-11-11-11-11-11-11-0-I-4-4-4-4-4-4-4-4-I
-9--9--9--9--9--9--9--0-I-4-4-4-4-4-4-4-4-I
----------------------0-I-2-2-2-2-2-2-2-2-I

CHORUS
----------------I----------------I
-7-7-7----------I----------------I
-7-7-7----------I-5-5-5-4-4--4-0-I
-7-7-7-7-7--7-0-I-5-5-5-4-4--4-0-I
-5-5-5-7-7--7-0-I-3-3-3-2-2--2-0-I
-------5-5--5-0-I--------------0-I

SOLO
---------I----I----I--------------------I
---------I----I----I--------------------I
-11------I----I----I-11-10-10-9-9-8-8-0-I
-10------I----I----I-10-9--9--8-8-7-7-0-I
-9-------I----I----I-9--8--8--7-7-6-6-0-I
---------I----I----I--------------------I

---------I----I----I------------------------I
---------I----I----I------------------------I 
/14------I----I----I-14-13-13-12-12-11-11-0-I
/13------I----I----I-13-12-12-11-11-10-10-0-I
/12------I----I----I-12-11-11-10-10-9--9--0-I
---------I----I----I------------------------I

---------I----I----I---------------------I---------I----I----I-----------------I		
---------I----I----I---------------------I---------I----I----I-----------------I
/17------I----I----I-17-16-16-15-15-14-0-I-20------I----I---/I-----------------I
/16------I----I----I-16-15-15-14-14-13-0-I-19------I----I---/I-4-4-4-4-4-4-4-4-I
/15------I----I----I-15-14-14-13-13-12-0-I-18------I----I---/I-4-4-4-4-4-4-4-4-I
---------I----I----I---------------------I---------I----I----I-2-2-2-2-2-2-2-2-I

Order of what to play:
Main riff
Verse
Chorus  (first part)
Chorus  (last part)
Main riff
Verse
Chorus  (first part)
Chorus  (last part)
Verse
Solo
Chorus  (first part) 



Comments