Nirvana - Breed Chords & Tabs

 

Breed Chords & Tabs

Nirvana Chords & Tabs

Version: 3 Type: Tab 5 ratings
1 star 2 stars 3 stars 4 stars 5 stars
comments

Breed Tab

Nirvana - Breed

Standard Tuning


That weird sound at the start sounds sorta like 
Flanger mixed with the buzzy type feedback, and maybe
a Low E string slide      

Intro:

|----------------------------------|
|----------------------------------|
|----------------------------------|  hit that E hard, so it makes
|----4--4--4--4-/-7-----------2----|  a kind of 'plop' noise
|----4--4--4--4-/-7-Bend------2----|
|----2--2--0--2-/-5-----------0----|



Verse:

|------------------------|------|
|----11------------------|------|
|----11-*----------------|------|   *hit those F#'s a LOT, as fast 16th notes
|----11---9b-9--7--------|--4---|
|----9-------------9-----|--4-*-|
|------------------------|--2---|


Chorus:

|----------------------------------|---------------------------------| 
|----------------------------------|---------------------------------| 
|--7--7--7--x-------------x--------|---5--5--5--x--4-----4--x--------| 
|--7--7--7--x---7----7----x--------|---5--5--5--x--4-----4--x--------| 
|--5--5--5--x---7----7----x--------|---3--3--3--x--2-----2--x--------| 
|---------------5----5-------------|---------------------------------| 

[ Tab from: http://www.guitartabs.cc/tabs/n/nirvana/breed_tab_ver_3.html ]
Solo:
                Note:  your going to have to listen to the song to see how
                       long you tremelo pick for...because I can't exactly write out
                       rythem....especially in a ASCII document....
trem~~~~~~~~
|-----|-----|---------|
|-----|-12--|---------|
|-11--|-11--|--10--8--|
|-----|-----|---------|
|-9---|-9---|---------|
|-----|-----|---------|
  
trem~~
|-----|-------------------|
|-----|-------------------|
|-14--|-14--13--12--12-\--|
|-----|----------------\--|
|-12--|-12--11--10--10-\--|
|-----|-------------------|

trem~~
|-----|----------------------|    every once in a while add a
|-----|----------------------|    18 on top of the trem picking                             
|-17--|--18--16--15--14--14\-|    part                            
|-----|--------------------\-|                      
|-15--|--16--14--13--12--12\-|
|-----|----------------------|

Trem~~~~~~~~~~~~~~~~~
|----------------------|
|----------------------|
|-19-------------------|
|----------------------|
|-17-------------------|
|----------------------|






well, theres all the parts.
Not to tough of a song, but sounds awesome.
Put together by Rell.
Comments