Nirvana - Breed Chords & Tabs

 

Breed Chords & Tabs

Nirvana Chords & Tabs

Version: 2 Type: Tab 0 ratings
1 star 2 stars 3 stars 4 stars 5 stars
comments

Breed Tab

   
From: Nathan Heltsley
E-mail:offsetnate@yahoo.com


BREED by Kurt Cobain


Intro:

e|---------------------------------|---------------------------------|
B|---------------------------------|---------------------------------|
G|-*-----------------------------*-|-*-------------------------------|
B|-*--4--4--4--4--7-----------2--*-|-*--4--4--4--4--7----------------|
A|----4--4--4--4--7-Bend------2----|----4--4--4--4--7-Bend-----------|
E|----2--2--0--2--5-----------0----|----2--2--0--2--5-----------0----|

e|---------------------------------|---------------------------------|
B|---------------------------------|---------------------------------|
G|---------------------------------|-------------------------------*-|
B|----4--4--4--4--7----------------|----4--4--4--4--7--------------*-|
A|----4--4--4--4--7-Bend-----------|----4--4--4--4--7-Bend-----------|
E|----2--2--0--2--5-----------0----|----2--2--0--2--5-----------0----|
                  

Riff 1:

e|---------------------------------|---------------------------------|
B|---------------------------------|---------------------------------|
G|-*-------------------------------|---------------------------------|
B|-*--4--4-------------------------|----4--4-------------------------|
A|----4--4-------------------------|----4--4-------------------------|
E|----2--2--0--2--5-Bend------0----|----2--2--0--2--5-Bend------0----|
[ Tab from: http://www.guitartabs.cc/tabs/n/nirvana/breed_tab_ver_2.html ]
e|---------------------------------|---------------------------------|
B|---------------------------------|---------------------------------|
G|---------------------------------|-------------------------------*-|
B|----4--4-------------------------|----4--4-----------------------*-|
A|----4--4-------------------------|----4--4-------------------------|
E|----2--2--0--2--5-Bend------0----|----2--2--0--2--5-Bend------0----|


Verse:

e|-----------------------------|-----|-----|-------------------------|
B|-----------------------------|-----|-----|-------------------------|
G|-----------------------------|-----|-----|-------------------------|
B|---11-11-11-11--11-11-11-11--|--%--|--%--|--11-11-11---------------|
A|---9--9--9--9---9--9--9--9---|-----|-----|--9--9--9--9-Bend--9-7---|
E|-----------------------------|-----|-----|-------------------------|


e|-----------------------------|---|---|---|-------------------------|
B|-----------------------------|---|---|---|-------------------------|
G|-*---------------------------|---|---|---|-----------------------*-|
B|-*-11-11-11-11--11-11-11-11--|-%-|-%-|-%-|--11-11-11-------------*-|
A|---9--9--9--9---9--9--9--9---|---|---|---|--9--9--9--9-Bend--9-7---|
E|-----------------------------|---|---|---|-------------------------|


e|-----------------------------|
B|-----------------------------|
G|-----------------------------|
B|----4-4-4-4---4-4-4-0--------|
A|----4-4-4-4---4-4-4-1--------|
E|----2-2-2-2---2-2-2----------|

I don't care, I don't care, I don't care, ....


Chorus:
  
      D           A                    C5          B5
e|----2--2--2----------------------|---------------------------------|
B|----3--3--3--X--2------2--X------|---------------------------------|
G|----2--2--2--X--2------2--X------|---5--5--5--X--4------4--X-------|
B|----0--0--0--X--2------2--X------|---5--5--5--X--4------4--X-------|
A|---------------------------------|---3--3--3--X--2------2--X-------|
E|---------------------------------|---------------------------------|

Even if you .....

She s... (with Riff 1)
Comments