Nirvana - Blew Chords & Tabs

 

Blew Chords & Tabs

Nirvana Chords & Tabs

Version: 3 Type: Bass Tab 0 ratings
1 star 2 stars 3 stars 4 stars 5 stars
comments

Blew Bass Tab

Nirvana -> Blew (Bleach)

Intro (6x)
G:------------------------------------------------------
D:------------------------------------------------------
A:------------------------------------------------------
E:0-3-5-5h6-6-5-----------------------------------------

"If you wouldn't mind............(8x)
G:------------------------------------------------------
D:------------------------------------------------------
A:------------------------------------------------------
E:0-3-5-5h6-6-5-33-0-3h5-5------------------------------
[ Tab from: http://www.guitartabs.cc/tabs/n/nirvana/blew_btab_ver_3.html ]
"Is it another............." (3x)
G:------------------------------------------------------
D:------------------------------------------------------
A:------------------------------------------------------
E:3-5-55-3-0-3-5-5-3-6----------------------------------

Solo (2x)
G:------------------------------------------------------
D:------------------------------------------------------
A:------------------------------------------------------
E:00-3-5-5h6-6-5-33-0-3h5-5-3-0-3-5-5h6-6-5h6-5-3-0-00--

G:-----------------------------------------------------------------------------------------------
D:-----------------------------------------------------------------------------------------------
A:------------3-0-3-555-3-------------3-0-3-5-55-3-------------3-0-3-555-3-----------------------
E:00-3-5-5h6-6-----------5-0-3-5-5h6-6------------5-0-3-5-5h6-6-----------5-0-3-5-5h6-6-5h6-5-3-0


Figured out by Luiz Manzano (Brasil)
Comments