Nirvana - Blew Chords & Tabs

 

Blew Chords & Tabs

Nirvana Chords & Tabs

Version: 1 Type: Bass Tab 1 rating
1 star 2 stars 3 stars 4 stars 5 stars
comments

Blew Bass Tab

   
"Blew" by Nirvana Bass Tab (Correction)

I'm not too happy with the accuracy of the current bass tabs for "Blew" on 
the archive, so I am submitting my own interpretation, which is totally 
independant of the tab currently on the archive.


Intro: (Play this x4 omitting the last note on the 4th repitition)

	G-------------|
	D-------------|
	A-------------|
	E-0-3-5-6-5-0-|


Before Verse 1: (doubling the guitar)

	G-------------------------|
	D-------------------------|
	A-------------------------|
	E-0-0-3-5-6-6-5-3-3-0-5-5-|

[ Tab from: http://www.guitartabs.cc/tabs/n/nirvana/blew_btab.html ]
Verse:
	G-----------------------|-------------|
	D-----------------------|-------------|
	A-----------------------|-------------|
	E-0-3-5-6-6-5-3-0-5-5-3-|-0-3-5-5-6-0-|
          Along with words        x2 after words


Chorus
	G--------------------------|
	D--------------------------|
	A--------------------------|
	E-3-5--5-5-3--3-5--5-5-3-6-|
	"Is there another...."


Under Guitar Solo:

Part 1 (play x4)
	G-------------------------|
	D-------------------------|
	A-------------------------|
	E-0-0-3-5-6-6-5-3-3-0-5-5-|


Part 2  (Play x3)
	G-----------------------|
	D-----------------------|
	A-----------------------|
	E-0-0-3-5-6-6-7-7-5-8-8-|

Part 3 (play x1)
	G---------------------------|
	D---------------------------|
	A---------------------------|
	E-0-0-3-5-6-6-5-3-3-0-0-0-0-|


Outro (play x8)

	G-------------|
	D-------------|
	A-------------|
	E-0-3-5-6-6-0-|

Comments