Nirvana - Blandest Chords & Tabs

 

Blandest Chords & Tabs

Nirvana Chords & Tabs

Version: 4 Type: Tab 0 ratings
1 star 2 stars 3 stars 4 stars 5 stars
comments

Blandest Tab

Blandest by Nirvana
With the Lights Out (Disc 1)
Released November 23rd, 2004
Written by Kurt Cobain

Tuning - EADGBe (Normal)

This is my first tab so it might not be perfect.

Intro/Verses
E---------4--|
A---2---2----|
D-----0------|    Do this 4 times for the intro and 9 times for each verse
G------------|
B------------|
e------------|

Chorus
E---------------------------------2--|
A---2-3-4-3-2-0-2-3-4---4-3-2-0-2----|
D---------------------4--------------|   Do this 2 times for each chorus
G------------------------------------|
B------------------------------------|
e------------------------------------|

Solo
[ Tab from: http://www.guitartabs.cc/tabs/n/nirvana/blandest_tab_ver_4.html ]
E----------------|
A-2s9------------|
D-----2s9--------|  Do this about 3 times
G----------------|
B----------------|
e----------------|

Lyrics :

Verses-
You're my favorite
Of my saviours
You're my favorite
Oh no
Yes you're my favorite
Of my favors
You're my razor
Oh no

Chorus-
Hey!
And the situation wasn't quite
As intense as I thought
I need you around
To remind me when not to be calm (Alt: To remind me what not to become)
And the situation wasn't quite
As intense as I thought
I need you around
To remind me when not to be calm
Calm, calm, calm


Okay, that's about it. I'm not too sure about the solo, though. Any comments or
questions about the tab or Nirvana in general, email me at BlandestOpinion@aol.com
Comments