Nirvana - Big Long Now Chords & Tabs

 

Big Long Now Chords & Tabs

Nirvana Chords & Tabs

Version: 2 Type: Bass Tab 0 ratings
1 star 2 stars 3 stars 4 stars 5 stars
comments

Big Long Now Bass Tab

Nirvana

Big long now..                                   standard tuning

Verse
G--------------------------|
D---3---3---3---5---3---|  It can be played in two different ways,this is best.. 
A-4---5---4--------------|
E--------------------------|
              Or                   
G-------------------------|
D---3--5--3----3--5--3-| This is the real way…
A-4----------4----------| 
E--------------------------|

In The end of every verse:( Can we show our faces now? )
[ Tab from: http://www.guitartabs.cc/tabs/n/nirvana/big_long_now_btab_ver_2.html ]
G------------------------|
D------------------------|  Slowly
A------------------------|
E-6-6-6-6-5-5-4-4----|

Chorus

G----------------------------|
D----------------------------|        Play four times….
A-5-5-5-4--5-5-5-4-------|
E------------------------3---|

On the last line in chorus it is played like this:

G-------------------------------------------|
D-------------------------------------------|
A-5-5-5-4--5-5-5-4----------------------|
E-----------------------3--2--(1)-------|                                                                                                 

This is my first tab.. I hope you understand it….
Enjoy it….
Made by M.møller
Comments