Nirvana - Been A Son Chords & Tabs

 

Been A Son Chords & Tabs

Nirvana Chords & Tabs

Version: 2 Type: Tab 2 ratings
1 star 2 stars 3 stars 4 stars 5 stars
comments

Been A Son Tab

Artist: Nirvana
Song: been a son

Verse:
e---0--0-----------0---(0)--0--------|
b---3--3-----------3---(3)--3--------|
g---2--2-----------2---(2)--2--------| Play a couple times
d---0--0-----------0---(0)--0--------|
a---0--0---3-2-0---0---(0)--0---3-2-0|
E---0--0-----------0---(0)--0--------|


Chorus:
e-------------------------
b-------------------------
g-------------------------   Repeat
d---5-5--3--X-2--2--------
a---5-5--3--X-2--2--3-2-0-
E---5-5--3--X-2--2--------
[ Tab from: http://www.guitartabs.cc/tabs/n/nirvana/been_a_son_tab_ver_2.html ]
Solo-
e----------------------------
b----------------------------
g--6-6--4-3-1/6--6-6--4-3-1--  X2
d----------------------------
a----------------------------
E----------------------------

e--------------------------------------------------------
b--------------------------------------------------------
g--/4-4--2--2-1--1-1-1-0-1-0--1/4--4--2--2-1--1-1-1-0-1-0
d--------------------------------------------------------
a--------------------------------------------------------
E--------------------------------------------------------

Thats about it.


Comments