Nirvana - Bat Ruoy Timbus Chords & Tabs

 

Bat Ruoy Timbus Chords & Tabs

Nirvana Chords & Tabs

Version: 1 Type: Bass Tab 0 ratings
1 star 2 stars 3 stars 4 stars 5 stars
comments

Bat Ruoy Timbus Bass Tab

Intro: G-88-87656-4-4-5-3-6-----|
       D4--4-----4--------------|
       A--------------------195-|
       E-----------6-6-6-6------|

Verse: G-3347-7------35--098--3-|
       D9----3---354---63---34--|
       A------------------------|
       E-------11---------------|
[ Tab from: http://www.guitartabs.cc/tabs/n/nirvana/bat_ruoy_timbus_btab.html ]
Chorus: G---------------028475-|
        D465---------564-------|
        A---893---398----------|
        E------243-------------|

Outro: G661234-----------------|
       D------2-3-5-----4----2-|
       A-------4---345----23---|
       E---------4----12-4--4--|

This was one of the rarest Nirvan jams ever. To listen to this song go to
www.columnchew.com or www.toplesstony.5u.com. You can email me at gmoss07@aol.com.
Comments