Nirvana - Aneurysm Chords & Tabs

 

Aneurysm Chords & Tabs

Nirvana Chords & Tabs

Version: 11 Type: Tab 0 ratings
1 star 2 stars 3 stars 4 stars 5 stars
comments

Aneurysm Tab

   
Aneurysm
Kurt Cobain

Intro:
Clean
E|----------------------
B|----------------------
G|----------------------
D|------5555-444-2-2222-
A|-4-44-3333-222-0-0000-
E|-2-22-----------------

Distortion
E|----------------------------------------------------------------
B|----------------------------------------------------------------
G|-33333333444444445555555566667777888899991010101011111111/5/13/-
D|----------------------------------------------------------------
A|----------------------------------------------------------------
E|----------------------------------------------------------------

E|----------------------
B|------5555-444--------
G|------5555-444-2-2222-
D|-4-44-5555-444-2-2222-
A|-4-44-3333-222-0-0000-
E|-2-22-----------------

E|----------------------------------------------------------------
B|----------------------------------------------------------------
G|-33333333444444445555555566667777888899991010101011111111/5/13/-
D|----------------------------------------------------------------
A|----------------------------------------------------------------
E|----------------------------------------------------------------

Verse:
Clean                  Distortion
E|---------------------|------------------
B|---------------------|-7777777777777777-
G|------------------99-|-7777777777777777-
D|----9----9----9---99-|-7777777777777777-
A|-9999-9999-9999-9999-|-5555555555555555-
E|-7777-7777-7777-7777-|------------------
[ Tab from: http://www.guitartabs.cc/tabs/n/nirvana/aneurysm_tab_ver_11.html ]
Chorus:
Distortion
E|---------------------
B|---------------------
G|---------------------
D|-44-6-7-777-8-99-8-7-
A|-44-6-7-777-8-99-8-7-
E|-22-4-5-555-6-77-6-5-

Outro:
Distortion
E|----------------------------------------------------------------
B|----------------------------------------------------------------
G|-33333333444444445555555566667777888899991010101011111111/5/13/-
D|----------------------------------------------------------------
A|----------------------------------------------------------------
E|----------------------------------------------------------------

E|----------------------
B|------5555-444--------
G|------5555-444-2-2222-
D|-4-44-5555-444-2-2222-
A|-4-44-3333-222-0-0000-
E|-2-22-----------------

E|---------------------
B|---------------------
G|------5555-4444-2222-
D|-4444----------------
A|---------------------
E|---------------------
                                                           Press lightly
E|---------------------------------------------------------|---------------
B|---------------------------------------------------------|---------------
G|-33333333444444445555555566667777888899991010101011111111|141517192021**-
D|---------------------------------------------------------|---------------
A|---------------------------------------------------------|---------------
E|---------------------------------------------------------|---------------

*=press on the string off of the fret board and closer to the pick ups
Comments